  0
SECTION
  2
HEADER
  9
$ACADVER
  1
AC1015
  9
$ACADMAINTVER
 70
    18
  9
$DWGCODEPAGE
  3
ANSI_1252
  9
$INSBASE
 10
0.0
 20
0.0
 30
0.0
  9
$EXTMIN
 10
-178.398741905576
 20
-188.8970027022262
 30
-0.0015258207003583
  9
$EXTMAX
 10
207.244263425521
 20
236.9165960805451
 30
0.0000000349246037
  9
$LIMMIN
 10
0.0
 20
0.0
  9
$LIMMAX
 10
420.0
 20
297.0
  9
$ORTHOMODE
 70
     0
  9
$REGENMODE
 70
     1
  9
$FILLMODE
 70
     1
  9
$QTEXTMODE
 70
     0
  9
$MIRRTEXT
 70
     0
  9
$LTSCALE
 40
1.0
  9
$ATTMODE
 70
     1
  9
$TEXTSIZE
 40
2.5
  9
$TRACEWID
 40
1.0
  9
$TEXTSTYLE
  7
Standard
  9
$CLAYER
  8
0
  9
$CELTYPE
  6
ByLayer
  9
$CECOLOR
 62
   256
  9
$CELTSCALE
 40
1.0
  9
$DISPSILH
 70
     0
  9
$DIMSCALE
 40
1.0
  9
$DIMASZ
 40
2.5
  9
$DIMEXO
 40
0.625
  9
$DIMDLI
 40
3.75
  9
$DIMRND
 40
0.0
  9
$DIMDLE
 40
0.0
  9
$DIMEXE
 40
1.25
  9
$DIMTP
 40
0.0
  9
$DIMTM
 40
0.0
  9
$DIMTXT
 40
2.5
  9
$DIMCEN
 40
2.5
  9
$DIMTSZ
 40
0.0
  9
$DIMTOL
 70
     0
  9
$DIMLIM
 70
     0
  9
$DIMTIH
 70
     0
  9
$DIMTOH
 70
     0
  9
$DIMSE1
 70
     0
  9
$DIMSE2
 70
     0
  9
$DIMTAD
 70
     1
  9
$DIMZIN
 70
     8
  9
$DIMBLK
  1

  9
$DIMASO
 70
     1
  9
$DIMSHO
 70
     1
  9
$DIMPOST
  1

  9
$DIMAPOST
  1

  9
$DIMALT
 70
     0
  9
$DIMALTD
 70
     3
  9
$DIMALTF
 40
0.03937007874016
  9
$DIMLFAC
 40
1.0
  9
$DIMTOFL
 70
     1
  9
$DIMTVP
 40
0.0
  9
$DIMTIX
 70
     0
  9
$DIMSOXD
 70
     0
  9
$DIMSAH
 70
     0
  9
$DIMBLK1
  1

  9
$DIMBLK2
  1

  9
$DIMSTYLE
  2
ISO-25
  9
$DIMCLRD
 70
     0
  9
$DIMCLRE
 70
     0
  9
$DIMCLRT
 70
     0
  9
$DIMTFAC
 40
1.0
  9
$DIMGAP
 40
0.625
  9
$DIMJUST
 70
     0
  9
$DIMSD1
 70
     0
  9
$DIMSD2
 70
     0
  9
$DIMTOLJ
 70
     0
  9
$DIMTZIN
 70
     8
  9
$DIMALTZ
 70
     0
  9
$DIMALTTZ
 70
     0
  9
$DIMUPT
 70
     0
  9
$DIMDEC
 70
     2
  9
$DIMTDEC
 70
     2
  9
$DIMALTU
 70
     2
  9
$DIMALTTD
 70
     3
  9
$DIMTXSTY
  7
Standard
  9
$DIMAUNIT
 70
     0
  9
$DIMADEC
 70
     0
  9
$DIMALTRND
 40
0.0
  9
$DIMAZIN
 70
     0
  9
$DIMDSEP
 70
    44
  9
$DIMATFIT
 70
     3
  9
$DIMFRAC
 70
     0
  9
$DIMLDRBLK
  1

  9
$DIMLUNIT
 70
     2
  9
$DIMLWD
 70
    -2
  9
$DIMLWE
 70
    -2
  9
$DIMTMOVE
 70
     0
  9
$LUNITS
 70
     2
  9
$LUPREC
 70
     4
  9
$SKETCHINC
 40
1.0
  9
$FILLETRAD
 40
0.0
  9
$AUNITS
 70
     0
  9
$AUPREC
 70
     0
  9
$MENU
  1
.
  9
$ELEVATION
 40
0.0
  9
$PELEVATION
 40
0.0
  9
$THICKNESS
 40
0.0
  9
$LIMCHECK
 70
     0
  9
$CHAMFERA
 40
0.0
  9
$CHAMFERB
 40
0.0
  9
$CHAMFERC
 40
0.0
  9
$CHAMFERD
 40
0.0
  9
$SKPOLY
 70
     0
  9
$TDCREATE
 40
2460367.705740741
  9
$TDUCREATE
 40
2460367.414074074
  9
$TDUPDATE
 40
2460367.710497685
  9
$TDUUPDATE
 40
2460367.418831019
  9
$TDINDWG
 40
0.0034375000
  9
$TDUSRTIMER
 40
0.0034375000
  9
$USRTIMER
 70
     1
  9
$ANGBASE
 50
0.0
  9
$ANGDIR
 70
     0
  9
$PDMODE
 70
     0
  9
$PDSIZE
 40
0.0
  9
$PLINEWID
 40
0.0
  9
$SPLFRAME
 70
     0
  9
$SPLINETYPE
 70
     6
  9
$SPLINESEGS
 70
     8
  9
$HANDSEED
  5
11B9
  9
$SURFTAB1
 70
     6
  9
$SURFTAB2
 70
     6
  9
$SURFTYPE
 70
     6
  9
$SURFU
 70
     6
  9
$SURFV
 70
     6
  9
$UCSBASE
  2

  9
$UCSNAME
  2

  9
$UCSORG
 10
0.0
 20
0.0
 30
0.0
  9
$UCSXDIR
 10
1.0
 20
0.0
 30
0.0
  9
$UCSYDIR
 10
0.0
 20
1.0
 30
0.0
  9
$UCSORTHOREF
  2

  9
$UCSORTHOVIEW
 70
     0
  9
$UCSORGTOP
 10
0.0
 20
0.0
 30
0.0
  9
$UCSORGBOTTOM
 10
0.0
 20
0.0
 30
0.0
  9
$UCSORGLEFT
 10
0.0
 20
0.0
 30
0.0
  9
$UCSORGRIGHT
 10
0.0
 20
0.0
 30
0.0
  9
$UCSORGFRONT
 10
0.0
 20
0.0
 30
0.0
  9
$UCSORGBACK
 10
0.0
 20
0.0
 30
0.0
  9
$PUCSBASE
  2

  9
$PUCSNAME
  2

  9
$PUCSORG
 10
0.0
 20
0.0
 30
0.0
  9
$PUCSXDIR
 10
1.0
 20
0.0
 30
0.0
  9
$PUCSYDIR
 10
0.0
 20
1.0
 30
0.0
  9
$PUCSORTHOREF
  2

  9
$PUCSORTHOVIEW
 70
     0
  9
$PUCSORGTOP
 10
0.0
 20
0.0
 30
0.0
  9
$PUCSORGBOTTOM
 10
0.0
 20
0.0
 30
0.0
  9
$PUCSORGLEFT
 10
0.0
 20
0.0
 30
0.0
  9
$PUCSORGRIGHT
 10
0.0
 20
0.0
 30
0.0
  9
$PUCSORGFRONT
 10
0.0
 20
0.0
 30
0.0
  9
$PUCSORGBACK
 10
0.0
 20
0.0
 30
0.0
  9
$USERI1
 70
     0
  9
$USERI2
 70
     0
  9
$USERI3
 70
     0
  9
$USERI4
 70
     0
  9
$USERI5
 70
     0
  9
$USERR1
 40
0.0
  9
$USERR2
 40
0.0
  9
$USERR3
 40
0.0
  9
$USERR4
 40
0.0
  9
$USERR5
 40
0.0
  9
$WORLDVIEW
 70
     1
  9
$SHADEDGE
 70
     3
  9
$SHADEDIF
 70
    70
  9
$TILEMODE
 70
     1
  9
$MAXACTVP
 70
    48
  9
$PINSBASE
 10
0.0
 20
0.0
 30
0.0
  9
$PLIMCHECK
 70
     0
  9
$PEXTMIN
 10
0.0
 20
0.0
 30
0.0
  9
$PEXTMAX
 10
0.0
 20
0.0
 30
0.0
  9
$PLIMMIN
 10
0.0
 20
0.0
  9
$PLIMMAX
 10
12.0
 20
9.0
  9
$UNITMODE
 70
     0
  9
$VISRETAIN
 70
     1
  9
$PLINEGEN
 70
     0
  9
$PSLTSCALE
 70
     1
  9
$TREEDEPTH
 70
  3020
  9
$CMLSTYLE
  2
Standard
  9
$CMLJUST
 70
     0
  9
$CMLSCALE
 40
20.0
  9
$PROXYGRAPHICS
 70
     1
  9
$MEASUREMENT
 70
     1
  9
$CELWEIGHT
370
    -1
  9
$ENDCAPS
280
     0
  9
$JOINSTYLE
280
     0
  9
$LWDISPLAY
290
     0
  9
$INSUNITS
 70
     4
  9
$HYPERLINKBASE
  1

  9
$STYLESHEET
  1

  9
$XEDIT
290
     1
  9
$CEPSNTYPE
380
     0
  9
$PSTYLEMODE
290
     1
  9
$FINGERPRINTGUID
  2
{09ACAAAA-6FF3-F94C-B944-1C0D1F37C415}
  9
$VERSIONGUID
  2
{B26B7354-6582-3048-B4DD-0F95B6D2D440}
  9
$EXTNAMES
290
     1
  9
$PSVPSCALE
 40
0.0
  9
$OLESTARTUP
290
     0
  0
ENDSEC
  0
SECTION
  2
CLASSES
  0
CLASS
  1
ACDBDICTIONARYWDFLT
  2
AcDbDictionaryWithDefault
  3
ObjectDBX Classes
 90
        0
280
     0
281
     0
  0
CLASS
  1
ACDBPLACEHOLDER
  2
AcDbPlaceHolder
  3
ObjectDBX Classes
 90
        0
280
     0
281
     0
  0
CLASS
  1
LAYOUT
  2
AcDbLayout
  3
ObjectDBX Classes
 90
        0
280
     0
281
     0
  0
CLASS
  1
DICTIONARYVAR
  2
AcDbDictionaryVar
  3
ObjectDBX Classes
 90
        0
280
     0
281
     0
  0
CLASS
  1
TABLESTYLE
  2
AcDbTableStyle
  3
ObjectDBX Classes
 90
     4095
280
     0
281
     0
  0
CLASS
  1
MATERIAL
  2
AcDbMaterial
  3
ObjectDBX Classes
 90
     1153
280
     0
281
     0
  0
CLASS
  1
VISUALSTYLE
  2
AcDbVisualStyle
  3
ObjectDBX Classes
 90
     4095
280
     0
281
     0
  0
CLASS
  1
SCALE
  2
AcDbScale
  3
ObjectDBX Classes
 90
     1153
280
     0
281
     0
  0
CLASS
  1
MLEADERSTYLE
  2
AcDbMLeaderStyle
  3
ACDB_MLEADERSTYLE_CLASS
 90
     4095
280
     0
281
     0
  0
CLASS
  1
CELLSTYLEMAP
  2
AcDbCellStyleMap
  3
ObjectDBX Classes
 90
     1152
280
     0
281
     0
  0
CLASS
  1
EXACXREFPANELOBJECT
  2
ExAcXREFPanelObject
  3
EXAC_ESW
 90
    33793
280
     0
281
     0
  0
CLASS
  1
NPOCOLLECTION
  2
AcDbImpNonPersistentObjectsCollection
  3
ObjectDBX Classes
 90
    33921
280
     0
281
     0
  0
CLASS
  1
LAYER_INDEX
  2
AcDbLayerIndex
  3
ObjectDBX Classes
 90
    32768
280
     0
281
     0
  0
CLASS
  1
SPATIAL_INDEX
  2
AcDbSpatialIndex
  3
ObjectDBX Classes
 90
    32768
280
     0
281
     0
  0
CLASS
  1
IDBUFFER
  2
AcDbIdBuffer
  3
ObjectDBX Classes
 90
    32768
280
     0
281
     0
  0
CLASS
  1
ACDBSECTIONVIEWSTYLE
  2
AcDbSectionViewStyle
  3
ObjectDBX Classes
 90
     1025
280
     0
281
     0
  0
CLASS
  1
ACDBDETAILVIEWSTYLE
  2
AcDbDetailViewStyle
  3
ObjectDBX Classes
 90
     1025
280
     0
281
     0
  0
CLASS
  1
XRECORD
  2
AcDbXrecord
  3
ObjectDBX Classes
 90
        0
280
     0
281
     0
  0
ENDSEC
  0
SECTION
  2
TABLES
  0
TABLE
  2
VPORT
  5
8
102
{ACAD_XDICTIONARY
360
10C7
102
}
330
0
100
AcDbSymbolTable
 70
     1
  0
VPORT
  5
EA
330
8
100
AcDbSymbolTableRecord
100
AcDbViewportTableRecord
  2
*Active
 70
     0
 10
0.0
 20
0.0
 11
1.0
 21
1.0
 12
14.4227607599725
 22
24.00979668915946
 13
0.0
 23
0.0
 14
10.0
 24
10.0
 15
10.0
 25
10.0
 16
0.0
 26
0.0
 36
1.0
 17
0.0
 27
0.0
 37
0.0
 40
452.8141736651708
 41
0.9846153846153846
 42
50.0
 43
0.0
 44
0.0
 50
0.0
 51
0.0
 71
     0
 72
  1000
 73
     1
 74
     3
 75
     0
 76
     1
 77
     0
 78
     0
281
     0
 65
     1
110
0.0
120
0.0
130
0.0
111
1.0
121
0.0
131
0.0
112
0.0
122
1.0
132
0.0
 79
     0
146
0.0
1001
ACAD_NAV_VCDISPLAY
1070
     3
  0
ENDTAB
  0
TABLE
  2
LTYPE
  5
5
330
0
100
AcDbSymbolTable
 70
     1
  0
LTYPE
  5
14
330
5
100
AcDbSymbolTableRecord
100
AcDbLinetypeTableRecord
  2
ByBlock
 70
     0
  3

 72
    65
 73
     0
 40
0.0
  0
LTYPE
  5
15
330
5
100
AcDbSymbolTableRecord
100
AcDbLinetypeTableRecord
  2
ByLayer
 70
     0
  3

 72
    65
 73
     0
 40
0.0
  0
LTYPE
  5
16
330
5
100
AcDbSymbolTableRecord
100
AcDbLinetypeTableRecord
  2
Continuous
 70
     0
  3
Solid line
 72
    65
 73
     0
 40
0.0
  0
ENDTAB
  0
TABLE
  2
LAYER
  5
2
102
{ACAD_XDICTIONARY
360
1FF
102
}
330
0
100
AcDbSymbolTable
 70
     1
  0
LAYER
  5
10
102
{ACAD_XDICTIONARY
360
13C
102
}
330
2
100
AcDbSymbolTableRecord
100
AcDbLayerTableRecord
  2
0
 70
     0
 62
     7
  6
Continuous
370
    -3
390
F
  0
ENDTAB
  0
TABLE
  2
STYLE
  5
3
330
0
100
AcDbSymbolTable
 70
     1
  0
STYLE
  5
11
330
3
100
AcDbSymbolTableRecord
100
AcDbTextStyleTableRecord
  2
Standard
 70
     0
 40
0.0
 41
1.0
 50
0.0
 71
     0
 42
2.5
  3
arial.ttf
  4

1001
ACAD
1000
Arial
1071
       34
  0
ENDTAB
  0
TABLE
  2
VIEW
  5
6
330
0
100
AcDbSymbolTable
 70
     0
  0
ENDTAB
  0
TABLE
  2
UCS
  5
7
330
0
100
AcDbSymbolTable
 70
     0
  0
ENDTAB
  0
TABLE
  2
APPID
  5
9
330
0
100
AcDbSymbolTable
 70
     8
  0
APPID
  5
12
330
9
100
AcDbSymbolTableRecord
100
AcDbRegAppTableRecord
  2
ACAD
 70
     0
  0
APPID
  5
9E
330
9
100
AcDbSymbolTableRecord
100
AcDbRegAppTableRecord
  2
ACAD_PSEXT
 70
     0
  0
APPID
  5
133
330
9
100
AcDbSymbolTableRecord
100
AcDbRegAppTableRecord
  2
AcadAnnoPO
 70
     0
  0
APPID
  5
134
330
9
100
AcDbSymbolTableRecord
100
AcDbRegAppTableRecord
  2
AcadAnnotative
 70
     0
  0
APPID
  5
135
330
9
100
AcDbSymbolTableRecord
100
AcDbRegAppTableRecord
  2
ACAD_DSTYLE_DIMJAG
 70
     0
  0
APPID
  5
136
330
9
100
AcDbSymbolTableRecord
100
AcDbRegAppTableRecord
  2
ACAD_DSTYLE_DIMTALN
 70
     0
  0
APPID
  5
165
330
9
100
AcDbSymbolTableRecord
100
AcDbRegAppTableRecord
  2
ACAD_MLEADERVER
 70
     0
  0
APPID
  5
217
330
9
100
AcDbSymbolTableRecord
100
AcDbRegAppTableRecord
  2
ACAD_NAV_VCDISPLAY
 70
     0
  0
ENDTAB
  0
TABLE
  2
DIMSTYLE
  5
A
330
0
100
AcDbSymbolTable
 70
     1
100
AcDbDimStyleTable
 71
     0
  0
DIMSTYLE
105
27
330
A
100
AcDbSymbolTableRecord
100
AcDbDimStyleTableRecord
  2
ISO-25
 70
     0
 41
2.5
 42
0.625
 43
3.75
 44
1.25
 73
     0
 74
     0
 77
     1
 78
     8
140
2.5
141
2.5
143
0.03937007874016
147
0.625
171
     3
172
     1
271
     2
272
     2
274
     3
278
    44
283
     0
284
     8
340
11
  0
ENDTAB
  0
TABLE
  2
BLOCK_RECORD
  5
1
330
0
100
AcDbSymbolTable
 70
     7
  0
BLOCK_RECORD
  5
1F
102
{ACAD_XDICTIONARY
360
1CE
102
}
330
1
100
AcDbSymbolTableRecord
100
AcDbBlockTableRecord
  2
*Model_Space
340
22
  0
BLOCK_RECORD
  5
D2
102
{ACAD_XDICTIONARY
360
107A
102
}
330
1
100
AcDbSymbolTableRecord
100
AcDbBlockTableRecord
  2
*Paper_Space
340
D3
  0
BLOCK_RECORD
  5
D6
102
{ACAD_XDICTIONARY
360
107C
102
}
330
1
100
AcDbSymbolTableRecord
100
AcDbBlockTableRecord
  2
*Paper_Space0
340
D7
  0
BLOCK_RECORD
  5
E64
330
1
100
AcDbSymbolTableRecord
100
AcDbBlockTableRecord
  2
ABR100-Front
340
0
102
{BLKREFS
331
1070
102
}
  0
BLOCK_RECORD
  5
EB7
330
1
100
AcDbSymbolTableRecord
100
AcDbBlockTableRecord
  2
ABR100-Left
340
0
102
{BLKREFS
331
1071
102
}
  0
BLOCK_RECORD
  5
EE6
330
1
100
AcDbSymbolTableRecord
100
AcDbBlockTableRecord
  2
ABR100-Right
340
0
102
{BLKREFS
331
1072
102
}
  0
BLOCK_RECORD
  5
F15
330
1
100
AcDbSymbolTableRecord
100
AcDbBlockTableRecord
  2
ABR100-Top
340
0
102
{BLKREFS
331
1073
102
}
  0
BLOCK_RECORD
  5
F68
330
1
100
AcDbSymbolTableRecord
100
AcDbBlockTableRecord
  2
ABR100-Bottom
340
0
102
{BLKREFS
331
1074
102
}
  0
BLOCK_RECORD
  5
FB2
330
1
100
AcDbSymbolTableRecord
100
AcDbBlockTableRecord
  2
ABR100-ISO
340
0
102
{BLKREFS
331
1075
102
}
  0
ENDTAB
  0
ENDSEC
  0
SECTION
  2
BLOCKS
  0
BLOCK
  5
20
330
1F
100
AcDbEntity
  8
0
100
AcDbBlockBegin
  2
*Model_Space
 70
     0
 10
0.0
 20
0.0
 30
0.0
  3
*Model_Space
  1

  0
ENDBLK
  5
21
330
1F
100
AcDbEntity
  8
0
100
AcDbBlockEnd
  0
BLOCK
  5
D4
330
D2
100
AcDbEntity
 67
     1
  8
0
100
AcDbBlockBegin
  2
*Paper_Space
 70
     0
 10
0.0
 20
0.0
 30
0.0
  3
*Paper_Space
  1

  0
ENDBLK
  5
D5
330
D2
100
AcDbEntity
 67
     1
  8
0
100
AcDbBlockEnd
  0
BLOCK
  5
D8
330
D6
100
AcDbEntity
 67
     1
  8
0
100
AcDbBlockBegin
  2
*Paper_Space0
 70
     0
 10
0.0
 20
0.0
 30
0.0
  3
*Paper_Space0
  1

  0
ENDBLK
  5
D9
330
D6
100
AcDbEntity
 67
     1
  8
0
100
AcDbBlockEnd
  0
BLOCK
  5
E65
330
E64
100
AcDbEntity
  8
0
100
AcDbBlockBegin
  2
ABR100-Front
 70
     0
 10
0.0
 20
0.0
 30
0.0
  3
ABR100-Front
  1

  0
SPLINE
  5
E67
330
E64
100
AcDbEntity
  8
0
100
AcDbSpline
210
0.0
220
0.0
230
1.0
 70
     8
 71
     3
 72
    18
 73
    14
 74
     0
 42
0.000000001
 43
0.0000000001
 40
0.4768244973171896
 40
0.4768244973171896
 40
0.4768244973171896
 40
0.4768244973171896
 40
0.5664884413608245
 40
0.5664884413608245
 40
0.6607545772369912
 40
0.6607545772369912
 40
0.7550207131131579
 40
0.7550207131131579
 40
0.8492868489893245
 40
0.8492868489893245
 40
0.9435529848654912
 40
0.9435529848654912
 40
1.033216928909126
 40
1.033216928909126
 40
1.033216928909126
 40
1.033216928909126
 10
-24.79128784747793
 20
2.0
 30
0.0
 10
-24.66439179031141
 20
2.0
 30
0.0
 10
-24.47971895468981
 20
2.00733400360332
 30
0.0
 10
-24.04658602794853
 20
2.02582296764557
 30
0.0
 10
-23.76544125645976
 20
2.038375803022274
 30
0.0
 10
-23.14926737665217
 20
2.057006678138642
 30
0.0
 10
-22.81422045292057
 20
2.062608885347903
 30
0.0
 10
-22.18577954707946
 20
2.062608885347903
 30
0.0
 10
-21.85073262334785
 20
2.057006678138642
 30
0.0
 10
-21.23455874354026
 20
2.038375803022274
 30
0.0
 10
-20.9534139720515
 20
2.02582296764557
 30
0.0
 10
-20.5202810453102
 20
2.00733400360332
 30
0.0
 10
-20.33560820968861
 20
2.0
 30
0.0
 10
-20.2087121525221
 20
2.0
 30
0.0
  0
SPLINE
  5
E68
330
E64
100
AcDbEntity
  8
0
100
AcDbSpline
210
0.0
220
0.0
230
1.0
 70
     8
 71
     3
 72
    18
 73
    14
 74
     0
 42
0.000000001
 43
0.0000000001
 40
0.4768244973171913
 40
0.4768244973171913
 40
0.4768244973171913
 40
0.4768244973171913
 40
0.5664884413608247
 40
0.5664884413608247
 40
0.6607545772369914
 40
0.6607545772369914
 40
0.7550207131131581
 40
0.7550207131131581
 40
0.8492868489893247
 40
0.8492868489893247
 40
0.9435529848654912
 40
0.9435529848654912
 40
1.033216928909124
 40
1.033216928909124
 40
1.033216928909124
 40
1.033216928909124
 10
-9.791287847477919
 20
2.0
 30
0.0
 10
-9.664391790311407
 20
2.0
 30
0.0
 10
-9.479718954689809
 20
2.007334003603321
 30
0.0
 10
-9.046586027948521
 20
2.025822967645569
 30
0.0
 10
-8.765441256459755
 20
2.038375803022272
 30
0.0
 10
-8.14926737665217
 20
2.05700667813864
 30
0.0
 10
-7.814220452920562
 20
2.062608885347901
 30
0.0
 10
-7.185779547079452
 20
2.062608885347901
 30
0.0
 10
-6.850732623347845
 20
2.05700667813864
 30
0.0
 10
-6.23455874354026
 20
2.038375803022272
 30
0.0
 10
-5.953413972051494
 20
2.025822967645569
 30
0.0
 10
-5.520281045310206
 20
2.007334003603321
 30
0.0
 10
-5.33560820968861
 20
2.0
 30
0.0
 10
-5.208712152522095
 20
2.0
 30
0.0
  0
SPLINE
  5
E69
330
E64
100
AcDbEntity
  8
0
100
AcDbSpline
210
0.0
220
0.0
230
1.0
 70
     8
 71
     3
 72
    18
 73
    14
 74
     0
 42
0.000000001
 43
0.0000000001
 40
0.4768244973171911
 40
0.4768244973171911
 40
0.4768244973171911
 40
0.4768244973171911
 40
0.5664884413608249
 40
0.5664884413608249
 40
0.6607545772369916
 40
0.6607545772369916
 40
0.7550207131131584
 40
0.7550207131131584
 40
0.849286848989325
 40
0.849286848989325
 40
0.9435529848654917
 40
0.9435529848654917
 40
1.033216928909125
 40
1.033216928909125
 40
1.033216928909125
 40
1.033216928909125
 10
5.208712152522077
 20
2.0
 30
0.0
 10
5.335608209688592
 20
2.0
 30
0.0
 10
5.520281045310188
 20
2.007334003603321
 30
0.0
 10
5.953413972051476
 20
2.025822967645569
 30
0.0
 10
6.234558743540246
 20
2.038375803022272
 30
0.0
 10
6.85073262334783
 20
2.05700667813864
 30
0.0
 10
7.185779547079437
 20
2.062608885347901
 30
0.0
 10
7.814220452920547
 20
2.062608885347901
 30
0.0
 10
8.149267376652154
 20
2.05700667813864
 30
0.0
 10
8.765441256459737
 20
2.038375803022272
 30
0.0
 10
9.046586027948507
 20
2.025822967645569
 30
0.0
 10
9.479718954689795
 20
2.007334003603321
 30
0.0
 10
9.664391790311393
 20
2.0
 30
0.0
 10
9.791287847477907
 20
2.0
 30
0.0
  0
SPLINE
  5
E6A
330
E64
100
AcDbEntity
  8
0
100
AcDbSpline
210
0.0
220
0.0
230
1.0
 70
     8
 71
     3
 72
    18
 73
    14
 74
     0
 42
0.000000001
 43
0.0000000001
 40
0.4768244973171895
 40
0.4768244973171895
 40
0.4768244973171895
 40
0.4768244973171895
 40
0.5664884413608242
 40
0.5664884413608242
 40
0.6607545772369907
 40
0.6607545772369907
 40
0.7550207131131574
 40
0.7550207131131574
 40
0.8492296915981738
 40
0.8492296915981738
 40
0.9434386700831902
 40
0.9434386700831902
 40
1.033213200495121
 40
1.033213200495121
 40
1.033213200495121
 40
1.033213200495121
 10
20.20871215252207
 20
2.0
 30
0.0
 10
20.33560820968859
 20
2.0
 30
0.0
 10
20.52028104531018
 20
2.00733400360332
 30
0.0
 10
20.95341397205147
 20
2.02582296764557
 30
0.0
 10
21.23455874354023
 20
2.038375803022273
 30
0.0
 10
21.85073262334782
 20
2.057006678138642
 30
0.0
 10
22.18577954707943
 20
2.062608885347903
 30
0.0
 10
22.81402992828338
 20
2.062608885347903
 30
0.0
 10
23.14888687542514
 20
2.057013746563124
 30
0.0
 10
23.76477071249605
 20
2.03840050685411
 30
0.0
 10
24.04581537348518
 20
2.02585719655167
 30
0.0
 10
24.47927119749309
 20
2.007351851952952
 30
0.0
 10
24.66424023096963
 20
2.0
 30
0.0
 10
24.79128784747791
 20
2.0
 30
0.0
  0
LINE
  5
E6B
330
E64
100
AcDbEntity
  8
0
100
AcDbLine
 10
-39.00000000000001
 20
2.0
 30
0.0
 11
-44.47706554351405
 21
2.0
 31
0.0
  0
LINE
  5
E6C
330
E64
100
AcDbEntity
  8
0
100
AcDbLine
 10
-44.47706554351405
 20
2.0
 30
0.0
 11
-44.47706554351404
 21
0.0
 31
0.0
  0
LINE
  5
E6D
330
E64
100
AcDbEntity
  8
0
100
AcDbLine
 10
-44.47706554351404
 20
0.0
 30
0.0
 11
-39.00000000000002
 21
0.0
 31
0.0
  0
LINE
  5
E6E
330
E64
100
AcDbEntity
  8
0
100
AcDbLine
 10
-39.00000000000002
 20
0.0
 30
0.0
 11
-39.00000000000001
 21
2.0
 31
0.0
  0
LINE
  5
E6F
330
E64
100
AcDbEntity
  8
0
100
AcDbLine
 10
44.47706554351404
 20
2.0
 30
0.0
 11
39.0
 21
2.0
 31
0.0
  0
LINE
  5
E70
330
E64
100
AcDbEntity
  8
0
100
AcDbLine
 10
39.0
 20
2.0
 30
0.0
 11
39.0
 21
0.0
 31
0.0
  0
LINE
  5
E71
330
E64
100
AcDbEntity
  8
0
100
AcDbLine
 10
38.99999999995342
 20
103.0000000000132
 30
0.0
 11
44.47706554347021
 21
97.02283181146528
 31
0.0
  0
LINE
  5
E72
330
E64
100
AcDbEntity
  8
0
100
AcDbLine
 10
-44.47706554355788
 20
97.02283181142428
 30
0.0
 11
-39.00000000004658
 21
102.9999999999773
 31
0.0
  0
LINE
  5
E73
330
E64
100
AcDbEntity
  8
0
100
AcDbLine
 10
39.0
 20
0.0
 30
0.0
 11
44.47706554351405
 21
0.0
 31
0.0
  0
LINE
  5
E74
330
E64
100
AcDbEntity
  8
0
100
AcDbLine
 10
44.47706554351405
 20
0.0
 30
0.0
 11
44.47706554351404
 21
2.0
 31
0.0
  0
LINE
  5
E75
330
E64
100
AcDbEntity
  8
0
100
AcDbLine
 10
-39.00000000000001
 20
2.0
 30
0.0
 11
39.0
 21
2.0
 31
0.0
  0
LINE
  5
E76
330
E64
100
AcDbEntity
  8
0
100
AcDbLine
 10
39.0
 20
0.0
 30
0.0
 11
-39.00000000000002
 21
0.0
 31
0.0
  0
LINE
  5
E77
330
E64
100
AcDbEntity
  8
0
100
AcDbLine
 10
-39.00000000004658
 20
102.9999999999773
 30
0.0
 11
38.99999999995343
 21
103.0000000000132
 31
0.0
  0
LINE
  5
E78
330
E64
100
AcDbEntity
  8
0
100
AcDbLine
 10
-44.47706554355788
 20
97.02283181142428
 30
0.0
 11
-43.25022672951887
 21
82.99999999997531
 31
0.0
  0
LINE
  5
E79
330
E64
100
AcDbEntity
  8
0
100
AcDbLine
 10
44.47706554347021
 20
97.02283181146528
 30
0.0
 11
43.25022672944416
 21
83.00000000001519
 31
0.0
  0
CIRCLE
  5
E7A
330
E64
100
AcDbEntity
  8
0
100
AcDbCircle
 10
-15.00000000000001
 20
48.00000000000189
 30
0.0
 40
2.5
  0
CIRCLE
  5
E7B
330
E64
100
AcDbEntity
  8
0
100
AcDbCircle
 10
-25.00000000000918
 20
33.00000000000645
 30
0.0
 40
2.5
  0
CIRCLE
  5
E7C
330
E64
100
AcDbEntity
  8
0
100
AcDbCircle
 10
-35.00000000000002
 20
93.00000000001098
 30
0.0
 40
2.5
  0
CIRCLE
  5
E7D
330
E64
100
AcDbEntity
  8
0
100
AcDbCircle
 10
-20.00000000000001
 20
78.00000000000415
 30
0.0
 40
2.5
  0
CIRCLE
  5
E7E
330
E64
100
AcDbEntity
  8
0
100
AcDbCircle
 10
-30.00000000000001
 20
63.00000000000872
 30
0.0
 40
2.5
  0
CIRCLE
  5
E7F
330
E64
100
AcDbEntity
  8
0
100
AcDbCircle
 10
-0.0000000000000076
 20
27.99999999999504
 30
0.0
 40
6.0
  0
ARC
  5
E80
330
E64
100
AcDbEntity
  8
0
100
AcDbCircle
 10
-0.0000000000000144
 20
87.99999999999503
 30
0.0
 40
5.999999999990869
100
AcDbArc
 50
0.0
 51
180.0
  0
LINE
  5
E81
330
E64
100
AcDbEntity
  8
0
100
AcDbLine
 10
5.999999999990856
 20
87.99999999999776
 30
0.0
 11
5.999999999999975
 21
67.99999999998864
 31
0.0
  0
ARC
  5
E82
330
E64
100
AcDbEntity
  8
0
100
AcDbCircle
 10
-0.000000000000025
 20
67.99999999998592
 30
0.0
 40
6.0
100
AcDbArc
 50
180.0
 51
0.0
  0
LINE
  5
E83
330
E64
100
AcDbEntity
  8
0
100
AcDbLine
 10
-6.000000000000026
 20
67.99999999998317
 30
0.0
 11
-6.000000000009149
 21
87.99999999999229
 31
0.0
  0
CIRCLE
  5
E84
330
E64
100
AcDbEntity
  8
0
100
AcDbCircle
 10
30.0
 20
63.00000000000872
 30
0.0
 40
2.5
  0
CIRCLE
  5
E85
330
E64
100
AcDbEntity
  8
0
100
AcDbCircle
 10
19.99999999999999
 20
78.00000000000415
 30
0.0
 40
2.5
  0
CIRCLE
  5
E86
330
E64
100
AcDbEntity
  8
0
100
AcDbCircle
 10
35.0
 20
93.00000000001098
 30
0.0
 40
2.5
  0
CIRCLE
  5
E87
330
E64
100
AcDbEntity
  8
0
100
AcDbCircle
 10
25.00000000000917
 20
33.00000000000645
 30
0.0
 40
2.5
  0
CIRCLE
  5
E88
330
E64
100
AcDbEntity
  8
0
100
AcDbCircle
 10
14.99999999999999
 20
48.00000000000189
 30
0.0
 40
2.5
  0
LINE
  5
E89
330
E64
100
AcDbEntity
  8
0
100
AcDbLine
 10
41.66479642214842
 20
76.9724586022036
 30
0.0
 11
43.25022672944324
 21
83.00000000001086
 31
0.0
  0
LINE
  5
E8A
330
E64
100
AcDbEntity
  8
0
100
AcDbLine
 10
38.78465313157025
 20
76.97245860219559
 30
0.0
 11
38.78036832649577
 21
76.97245860219553
 31
0.0
  0
LINE
  5
E8B
330
E64
100
AcDbEntity
  8
0
100
AcDbLine
 10
39.72744230537291
 20
76.97245860220383
 30
0.0
 11
38.78465313157025
 21
76.97245860219559
 31
0.0
  0
LINE
  5
E8C
330
E64
100
AcDbEntity
  8
0
100
AcDbLine
 10
39.7274423053729
 20
76.97245860220383
 30
0.0
 11
43.25022672944417
 21
83.00000000001521
 31
0.0
  0
LINE
  5
E8D
330
E64
100
AcDbEntity
  8
0
100
AcDbLine
 10
43.25022672944416
 20
83.00000000001519
 30
0.0
 11
39.45741276718408
 21
83.00000000001345
 31
0.0
  0
LINE
  5
E8E
330
E64
100
AcDbEntity
  8
0
100
AcDbLine
 10
41.66479642214842
 20
76.9724586022036
 30
0.0
 11
39.72744230537291
 21
76.97245860220383
 31
0.0
  0
LINE
  5
E8F
330
E64
100
AcDbEntity
  8
0
100
AcDbLine
 10
-41.66479642221474
 20
76.97245860216518
 30
0.0
 11
-43.2502267295198
 21
82.99999999997096
 31
0.0
  0
LINE
  5
E90
330
E64
100
AcDbEntity
  8
0
100
AcDbLine
 10
-38.78036832656494
 20
76.97245860215978
 30
0.0
 11
-38.7846531316394
 21
76.97245860215983
 31
0.0
  0
LINE
  5
E91
330
E64
100
AcDbEntity
  8
0
100
AcDbLine
 10
-38.7846531316394
 20
76.97245860215982
 30
0.0
 11
-39.72744230543872
 21
76.97245860216719
 31
0.0
  0
LINE
  5
E92
330
E64
100
AcDbEntity
  8
0
100
AcDbLine
 10
-39.4574127672588
 20
82.99999999997707
 30
0.0
 11
-43.25022672951887
 21
82.99999999997531
 31
0.0
  0
LINE
  5
E93
330
E64
100
AcDbEntity
  8
0
100
AcDbLine
 10
-39.72744230543873
 20
76.97245860216721
 30
0.0
 11
-43.25022672951889
 21
82.99999999997531
 31
0.0
  0
LINE
  5
E94
330
E64
100
AcDbEntity
  8
0
100
AcDbLine
 10
-39.72744230543872
 20
76.97245860216719
 30
0.0
 11
-41.66479642221474
 21
76.97245860216518
 31
0.0
  0
LINE
  5
E95
330
E64
100
AcDbEntity
  8
0
100
AcDbLine
 10
41.66479642218156
 20
5.089929923353652
 30
0.0
 11
42.33513115657212
 21
2.937860035747852
 31
0.0
  0
SPLINE
  5
E96
330
E64
100
AcDbEntity
  8
0
100
AcDbSpline
210
0.0
220
0.0
230
1.0
 70
     8
 71
     3
 72
    14
 73
    10
 74
     0
 42
0.000000001
 43
0.0000000001
 40
-0.0005832304809294
 40
-0.0005832304809294
 40
-0.0005832304809294
 40
-0.0005832304809294
 40
-0.0004694205919792
 40
-0.0004694205919792
 40
-0.0003494573215492
 40
-0.0003494573215492
 40
-0.0001747183185095
 40
-0.0001747183185095
 40
0.0
 40
0.0
 40
0.0
 40
0.0
 10
38.78036832653034
 20
2.0
 30
0.0
 10
38.78074774156895
 20
2.0
 30
0.0
 10
38.78112563291084
 20
2.000048552019087
 30
0.0
 10
38.78187962828516
 20
2.000245678423287
 30
0.0
 10
38.78225114256411
 20
2.000398633479674
 30
0.0
 10
38.78310091389025
 20
2.000891667688773
 30
0.0
 10
38.78354219449597
 20
2.001280510079546
 30
0.0
 10
38.78424817015015
 20
2.002207119132636
 30
0.0
 10
38.78450585907142
 20
2.002735660329338
 30
0.0
 10
38.78465313160481
 20
2.00329912641729
 30
0.0
  0
LINE
  5
E97
330
E64
100
AcDbEntity
  8
0
100
AcDbLine
 10
38.78465313160481
 20
2.00329912641729
 30
0.0
 11
39.7274423054058
 21
5.610419308872288
 31
0.0
  0
LINE
  5
E98
330
E64
100
AcDbEntity
  8
0
100
AcDbLine
 10
39.7274423054058
 20
5.610419308872288
 30
0.0
 11
43.25022672948151
 21
2.000000000000007
 31
0.0
  0
LINE
  5
E99
330
E64
100
AcDbEntity
  8
0
100
AcDbLine
 10
39.7274423054058
 20
5.610419308872288
 30
0.0
 11
41.66479642218156
 21
5.089929923353654
 31
0.0
  0
LINE
  5
E9A
330
E64
100
AcDbEntity
  8
0
100
AcDbLine
 10
-41.66479642218158
 20
5.089929923353652
 30
0.0
 11
-42.33513115657216
 21
2.937860035747824
 31
0.0
  0
SPLINE
  5
E9B
330
E64
100
AcDbEntity
  8
0
100
AcDbSpline
210
0.0
220
0.0
230
1.0
 70
     8
 71
     3
 72
    14
 73
    10
 74
     0
 42
0.000000001
 43
0.0000000001
 40
-0.0005833068335805
 40
-0.0005833068335805
 40
-0.0005833068335805
 40
-0.0005833068335805
 40
-0.0004706209334314
 40
-0.0004706209334314
 40
-0.0003516683788188
 40
-0.0003516683788188
 40
-0.000176229190157
 40
-0.000176229190157
 40
0.0
 40
0.0
 40
0.0
 40
0.0
 10
-38.78465313160484
 20
2.00329912641729
 30
0.0
 10
-38.78455815890472
 20
2.002935759979845
 30
0.0
 10
-38.78441704648317
 20
2.002586078964102
 30
0.0
 10
-38.78403929901575
 20
2.001912765046413
 30
0.0
 10
-38.78379953948384
 20
2.001594781110792
 30
0.0
 10
-38.78310913827545
 20
2.000897557486452
 30
0.0
 10
-38.78261927324414
 20
2.000567841125518
 30
0.0
 10
-38.78153751162114
 20
2.000116383495095
 30
0.0
 10
-38.78095575716422
 20
2.0
 30
0.0
 10
-38.78036832653037
 20
2.0
 30
0.0
  0
LINE
  5
E9C
330
E64
100
AcDbEntity
  8
0
100
AcDbLine
 10
-39.72744230540582
 20
5.610419308872288
 30
0.0
 11
-38.78465313160484
 21
2.00329912641729
 31
0.0
  0
LINE
  5
E9D
330
E64
100
AcDbEntity
  8
0
100
AcDbLine
 10
-39.72744230540582
 20
5.610419308872288
 30
0.0
 11
-43.25022672948153
 21
2.0
 31
0.0
  0
LINE
  5
E9E
330
E64
100
AcDbEntity
  8
0
100
AcDbLine
 10
-41.66479642218158
 20
5.089929923353654
 30
0.0
 11
-39.72744230540582
 21
5.610419308872288
 31
0.0
  0
LINE
  5
E9F
330
E64
100
AcDbEntity
  8
0
100
AcDbLine
 10
30.34014586853629
 20
20.00000000000925
 30
0.0
 11
35.19381640210429
 21
20.00000000001959
 31
0.0
  0
LINE
  5
EA0
330
E64
100
AcDbEntity
  8
0
100
AcDbLine
 10
38.66254976522498
 20
20.00000000003276
 30
0.0
 11
36.72519564844952
 21
20.000000000033
 31
0.0
  0
LINE
  5
EA1
330
E64
100
AcDbEntity
  8
0
100
AcDbLine
 10
36.72519564844952
 20
20.000000000033
 30
0.0
 11
35.19381640210429
 21
20.00000000001959
 31
0.0
  0
LINE
  5
EA2
330
E64
100
AcDbEntity
  8
0
100
AcDbLine
 10
-30.34014586855291
 20
19.99999999998127
 30
0.0
 11
-35.19381640211746
 21
19.99999999998714
 31
0.0
  0
SPLINE
  5
EA3
330
E64
100
AcDbEntity
  8
0
100
AcDbSpline
210
0.0
220
0.0
230
1.0
 70
     8
 71
     3
 72
    14
 73
    10
 74
     0
 42
0.000000001
 43
0.0000000001
 40
0.0
 40
0.0
 40
0.0
 40
0.0
 40
0.199453978593692
 40
0.199453978593692
 40
0.398206262607084
 40
0.398206262607084
 40
0.533079435304611
 40
0.533079435304611
 40
0.6608611733068291
 40
0.6608611733068291
 40
0.6608611733068291
 40
0.6608611733068291
 10
30.34014586854458
 20
2.0
 30
0.0
 10
31.00499246385689
 20
2.0
 30
0.0
 10
31.66341332575509
 20
2.131815861257646
 30
0.0
 10
32.88834847398309
 20
2.643039935698279
 30
0.0
 10
33.44332835330464
 20
3.016632817810268
 30
0.0
 10
34.22582183644633
 20
3.806752417419531
 30
0.0
 10
34.49770271614845
 20
4.167306890402695
 30
0.0
 10
34.92607960163302
 20
4.930790020941026
 30
0.0
 10
35.08611658122588
 20
5.32733418500221
 30
0.0
 10
35.19381640211086
 20
5.739394705377898
 30
0.0
  0
LINE
  5
EA4
330
E64
100
AcDbEntity
  8
0
100
AcDbLine
 10
36.72519564845339
 20
11.59846600146007
 30
0.0
 11
35.19381640211086
 21
5.739394705377898
 31
0.0
  0
LINE
  5
EA5
330
E64
100
AcDbEntity
  8
0
100
AcDbLine
 10
36.72519564845339
 20
11.59846600146007
 30
0.0
 11
36.72519564845339
 21
20.000000000033
 31
0.0
  0
LINE
  5
EA6
330
E64
100
AcDbEntity
  8
0
100
AcDbLine
 10
38.6625497652291
 20
11.07797661594146
 30
0.0
 11
36.72519564845339
 21
11.59846600146007
 31
0.0
  0
LINE
  5
EA7
330
E64
100
AcDbEntity
  8
0
100
AcDbLine
 10
38.6625497652291
 20
11.07797661594146
 30
0.0
 11
38.6625497652291
 21
20.00000000003276
 31
0.0
  0
SPLINE
  5
EA8
330
E64
100
AcDbEntity
  8
0
100
AcDbSpline
210
0.0
220
0.0
230
1.0
 70
     8
 71
     3
 72
    14
 73
    10
 74
     0
 42
0.000000001
 43
0.0000000001
 40
0.0
 40
0.0
 40
0.0
 40
0.0
 40
0.199453978593692
 40
0.199453978593692
 40
0.398206262607084
 40
0.398206262607084
 40
0.533079435304611
 40
0.533079435304611
 40
0.6608611733068291
 40
0.6608611733068291
 40
0.6608611733068291
 40
0.6608611733068291
 10
-30.34014586854461
 20
2.0
 30
0.0
 10
-31.00499246385691
 20
2.0
 30
0.0
 10
-31.6634133257551
 20
2.131815861257646
 30
0.0
 10
-32.88834847398311
 20
2.643039935698279
 30
0.0
 10
-33.44332835330466
 20
3.016632817810268
 30
0.0
 10
-34.22582183644634
 20
3.806752417419531
 30
0.0
 10
-34.49770271614847
 20
4.167306890402695
 30
0.0
 10
-34.92607960163303
 20
4.930790020941026
 30
0.0
 10
-35.08611658122589
 20
5.32733418500221
 30
0.0
 10
-35.19381640211089
 20
5.739394705377898
 30
0.0
  0
LINE
  5
EA9
330
E64
100
AcDbEntity
  8
0
100
AcDbLine
 10
-36.7251956484534
 20
11.59846600146007
 30
0.0
 11
-36.7251956484534
 21
19.99999999999912
 31
0.0
  0
LINE
  5
EAA
330
E64
100
AcDbEntity
  8
0
100
AcDbLine
 10
-36.7251956484534
 20
11.59846600146007
 30
0.0
 11
-35.19381640211089
 21
5.739394705377898
 31
0.0
  0
LINE
  5
EAB
330
E64
100
AcDbEntity
  8
0
100
AcDbLine
 10
-36.72519564845728
 20
19.99999999999912
 30
0.0
 11
-35.19381640211746
 21
19.99999999998713
 31
0.0
  0
LINE
  5
EAC
330
E64
100
AcDbEntity
  8
0
100
AcDbLine
 10
-38.66254976522911
 20
11.07797661594146
 30
0.0
 11
-38.66254976522911
 21
19.99999999999711
 31
0.0
  0
LINE
  5
EAD
330
E64
100
AcDbEntity
  8
0
100
AcDbLine
 10
-38.66254976522911
 20
11.07797661594146
 30
0.0
 11
-36.7251956484534
 21
11.59846600146007
 31
0.0
  0
LINE
  5
EAE
330
E64
100
AcDbEntity
  8
0
100
AcDbLine
 10
-38.66254976523323
 20
19.99999999999711
 30
0.0
 11
-36.72519564845728
 21
19.99999999999912
 31
0.0
  0
LINE
  5
EAF
330
E64
100
AcDbEntity
  8
0
100
AcDbLine
 10
38.66254976522498
 20
20.00000000003276
 30
0.0
 11
41.66479642214842
 21
76.9724586022036
 31
0.0
  0
LINE
  5
EB0
330
E64
100
AcDbEntity
  8
0
100
AcDbLine
 10
39.72744230537291
 20
76.97245860220383
 30
0.0
 11
36.72519564844952
 21
20.000000000033
 31
0.0
  0
LINE
  5
EB1
330
E64
100
AcDbEntity
  8
0
100
AcDbLine
 10
39.7274423054058
 20
5.610419308872288
 30
0.0
 11
36.72519564845339
 21
11.59846600146007
 31
0.0
  0
LINE
  5
EB2
330
E64
100
AcDbEntity
  8
0
100
AcDbLine
 10
38.6625497652291
 20
11.07797661594146
 30
0.0
 11
41.66479642218156
 21
5.089929923353654
 31
0.0
  0
LINE
  5
EB3
330
E64
100
AcDbEntity
  8
0
100
AcDbLine
 10
-38.66254976522911
 20
11.07797661594146
 30
0.0
 11
-41.66479642218158
 21
5.089929923353654
 31
0.0
  0
LINE
  5
EB4
330
E64
100
AcDbEntity
  8
0
100
AcDbLine
 10
-39.72744230540582
 20
5.610419308872288
 30
0.0
 11
-36.7251956484534
 21
11.59846600146007
 31
0.0
  0
LINE
  5
EB5
330
E64
100
AcDbEntity
  8
0
100
AcDbLine
 10
-39.72744230543872
 20
76.97245860216719
 30
0.0
 11
-36.72519564845728
 21
19.99999999999913
 31
0.0
  0
LINE
  5
EB6
330
E64
100
AcDbEntity
  8
0
100
AcDbLine
 10
-38.66254976523323
 20
19.99999999999711
 30
0.0
 11
-41.66479642221474
 21
76.97245860216518
 31
0.0
  0
ENDBLK
  5
E66
330
E64
100
AcDbEntity
  8
0
100
AcDbBlockEnd
  0
BLOCK
  5
EB8
330
EB7
100
AcDbEntity
  8
0
100
AcDbBlockBegin
  2
ABR100-Left
 70
     0
 10
0.0
 20
0.0
 30
0.0
  3
ABR100-Left
  1

  0
LINE
  5
EBA
330
EB7
100
AcDbEntity
  8
0
100
AcDbLine
 10
103.0
 20
2.0
 30
0.0
 11
97.02283181144952
 21
2.0
 31
0.0
  0
LINE
  5
EBB
330
EB7
100
AcDbEntity
  8
0
100
AcDbLine
 10
97.02283181144952
 20
2.0
 30
0.0
 11
97.02283181144952
 21
0.0
 31
0.0
  0
LINE
  5
EBC
330
EB7
100
AcDbEntity
  8
0
100
AcDbLine
 10
97.02283181144952
 20
0.0
 30
0.0
 11
103.0
 21
0.0
 31
0.0
  0
LINE
  5
EBD
330
EB7
100
AcDbEntity
  8
0
100
AcDbLine
 10
103.0
 20
0.0
 30
0.0
 11
103.0
 21
2.0
 31
0.0
  0
LINE
  5
EBE
330
EB7
100
AcDbEntity
  8
0
100
AcDbLine
 10
1.999999999803861
 20
102.9999999999773
 30
0.0
 11
0.0
 21
102.9999999999729
 31
0.0
  0
LINE
  5
EBF
330
EB7
100
AcDbEntity
  8
0
100
AcDbLine
 10
0.0
 20
102.9999999999729
 30
0.0
 11
0.0
 21
97.02283181141995
 31
0.0
  0
LINE
  5
EC0
330
EB7
100
AcDbEntity
  8
0
100
AcDbLine
 10
1.999999999819339
 20
97.02283181142428
 30
0.0
 11
1.999999999803861
 21
102.9999999999773
 31
0.0
  0
LINE
  5
EC1
330
EB7
100
AcDbEntity
  8
0
100
AcDbLine
 10
0.0
 20
97.02283181141995
 30
0.0
 11
1.999999999819339
 21
97.02283181142428
 31
0.0
  0
LINE
  5
EC2
330
EB7
100
AcDbEntity
  8
0
100
AcDbLine
 10
97.02283181144952
 20
2.0
 30
0.0
 11
83.0
 21
2.0
 31
0.0
  0
LINE
  5
EC3
330
EB7
100
AcDbEntity
  8
0
100
AcDbLine
 10
97.02283181144952
 20
0.0
 30
0.0
 11
82.99999999999998
 21
0.0
 31
0.0
  0
LINE
  5
EC4
330
EB7
100
AcDbEntity
  8
0
100
AcDbLine
 10
0.0
 20
19.99999999997729
 30
0.0
 11
0.0
 21
76.97245860215476
 31
0.0
  0
LINE
  5
EC5
330
EB7
100
AcDbEntity
  8
0
100
AcDbLine
 10
20.0
 20
0.0
 30
0.0
 11
76.97245860218242
 21
0.0
 31
0.0
  0
LINE
  5
EC6
330
EB7
100
AcDbEntity
  8
0
100
AcDbLine
 10
0.0
 20
76.97245860215476
 30
0.0
 11
0.0
 21
82.99999999997375
 31
0.0
  0
LINE
  5
EC7
330
EB7
100
AcDbEntity
  8
0
100
AcDbLine
 10
1.999999999849159
 20
82.99999999997531
 30
0.0
 11
0.0
 21
82.99999999997096
 31
0.0
  0
LINE
  5
EC8
330
EB7
100
AcDbEntity
  8
0
100
AcDbLine
 10
76.97245860218242
 20
0.0
 30
0.0
 11
83.0
 21
0.0
 31
0.0
  0
LINE
  5
EC9
330
EB7
100
AcDbEntity
  8
0
100
AcDbLine
 10
5.089929923215144
 20
76.97245860216518
 30
0.0
 11
3.02859865080327
 21
76.97245860216098
 31
0.0
  0
LINE
  5
ECA
330
EB7
100
AcDbEntity
  8
0
100
AcDbLine
 10
5.089929923215144
 20
76.97245860216518
 30
0.0
 11
0.0
 21
82.99999999997096
 31
0.0
  0
LINE
  5
ECB
330
EB7
100
AcDbEntity
  8
0
100
AcDbLine
 10
3.02859865080327
 20
76.97245860216098
 30
0.0
 11
0.0052781696528592
 21
76.97245860215478
 31
0.0
  0
LINE
  5
ECC
330
EB7
100
AcDbEntity
  8
0
100
AcDbLine
 10
0.0052781696528591
 20
76.97245860215478
 30
0.0
 11
0.0
 21
76.97245860215478
 31
0.0
  0
LINE
  5
ECD
330
EB7
100
AcDbEntity
  8
0
100
AcDbLine
 10
5.610419308732883
 20
76.97245860216721
 30
0.0
 11
1.99999999984916
 21
82.99999999997531
 31
0.0
  0
LINE
  5
ECE
330
EB7
100
AcDbEntity
  8
0
100
AcDbLine
 10
5.610419308732883
 20
76.97245860216719
 30
0.0
 11
5.089929923215144
 21
76.97245860216518
 31
0.0
  0
LINE
  5
ECF
330
EB7
100
AcDbEntity
  8
0
100
AcDbLine
 10
76.97245860218242
 20
3.028598650942029
 30
0.0
 11
76.97245860218242
 21
5.089929923353654
 31
0.0
  0
LINE
  5
ED0
330
EB7
100
AcDbEntity
  8
0
100
AcDbLine
 10
76.97245860218242
 20
0.0052781697919821
 30
0.0
 11
76.97245860218242
 21
3.028598650942029
 31
0.0
  0
LINE
  5
ED1
330
EB7
100
AcDbEntity
  8
0
100
AcDbLine
 10
76.97245860218242
 20
5.089929923353652
 30
0.0
 11
82.99999999999998
 21
0.0
 31
0.0
  0
LINE
  5
ED2
330
EB7
100
AcDbEntity
  8
0
100
AcDbLine
 10
76.97245860218238
 20
0.0
 30
0.0
 11
76.97245860218245
 21
0.0052781697919807
 31
0.0
  0
LINE
  5
ED3
330
EB7
100
AcDbEntity
  8
0
100
AcDbLine
 10
76.97245860218242
 20
5.610419308872288
 30
0.0
 11
83.0
 21
2.0
 31
0.0
  0
LINE
  5
ED4
330
EB7
100
AcDbEntity
  8
0
100
AcDbLine
 10
76.97245860218242
 20
5.089929923353654
 30
0.0
 11
76.97245860218242
 21
5.610419308872288
 31
0.0
  0
LINE
  5
ED5
330
EB7
100
AcDbEntity
  8
0
100
AcDbLine
 10
83.0
 20
2.0
 30
0.0
 11
82.99999999999998
 21
0.0
 31
0.0
  0
LINE
  5
ED6
330
EB7
100
AcDbEntity
  8
0
100
AcDbLine
 10
0.0
 20
97.02283181141995
 30
0.0
 11
0.0
 21
82.99999999997096
 31
0.0
  0
LINE
  5
ED7
330
EB7
100
AcDbEntity
  8
0
100
AcDbLine
 10
1.999999999819339
 20
97.02283181142428
 30
0.0
 11
1.999999999849159
 21
82.99999999997531
 31
0.0
  0
ARC
  5
ED8
330
EB7
100
AcDbEntity
  8
0
100
AcDbCircle
 10
20.0
 20
19.99999999999999
 30
0.0
 40
20.0
100
AcDbArc
 50
225.0000000000202
 51
270.0
  0
ARC
  5
ED9
330
EB7
100
AcDbEntity
  8
0
100
AcDbCircle
 10
19.99999999997936
 20
20.00000000002064
 30
0.0
 40
20.0
100
AcDbArc
 50
180.0
 51
225.0000000001038
  0
LINE
  5
EDA
330
EB7
100
AcDbEntity
  8
0
100
AcDbLine
 10
5.982981122395015
 20
19.99999999998665
 30
0.0
 11
0.0
 21
19.99999999997729
 31
0.0
  0
ARC
  5
EDB
330
EB7
100
AcDbEntity
  8
0
100
AcDbCircle
 10
20.0
 20
19.99999999999999
 30
0.0
 40
8.401533998539916
100
AcDbArc
 50
180.0
 51
270.0
  0
ARC
  5
EDC
330
EB7
100
AcDbEntity
  8
0
100
AcDbCircle
 10
20.0
 20
19.99999999999999
 30
0.0
 40
8.92202338405853
100
AcDbArc
 50
180.0
 51
270.0
  0
LINE
  5
EDD
330
EB7
100
AcDbEntity
  8
0
100
AcDbLine
 10
20.0
 20
11.07797661594146
 30
0.0
 11
20.0
 21
11.59846600146007
 31
0.0
  0
LINE
  5
EDE
330
EB7
100
AcDbEntity
  8
0
100
AcDbLine
 10
11.07797661592502
 20
19.99999999999711
 30
0.0
 11
11.59846600144274
 21
19.99999999999912
 31
0.0
  0
LINE
  5
EDF
330
EB7
100
AcDbEntity
  8
0
100
AcDbLine
 10
20.0
 20
5.982981122412067
 30
0.0
 11
20.0
 21
11.07797661594146
 31
0.0
  0
LINE
  5
EE0
330
EB7
100
AcDbEntity
  8
0
100
AcDbLine
 10
5.982981122395015
 20
19.99999999998667
 30
0.0
 11
11.07797661592502
 21
19.99999999999711
 31
0.0
  0
LINE
  5
EE1
330
EB7
100
AcDbEntity
  8
0
100
AcDbLine
 10
19.99999999999998
 20
5.982981122412067
 30
0.0
 11
20.0
 21
0.0
 31
0.0
  0
LINE
  5
EE2
330
EB7
100
AcDbEntity
  8
0
100
AcDbLine
 10
20.0
 20
11.07797661594146
 30
0.0
 11
76.97245860218242
 21
5.089929923353654
 31
0.0
  0
LINE
  5
EE3
330
EB7
100
AcDbEntity
  8
0
100
AcDbLine
 10
76.97245860218242
 20
5.610419308872288
 30
0.0
 11
20.0
 21
11.59846600146007
 31
0.0
  0
LINE
  5
EE4
330
EB7
100
AcDbEntity
  8
0
100
AcDbLine
 10
5.610419308732883
 20
76.97245860216719
 30
0.0
 11
11.59846600144274
 21
19.99999999999913
 31
0.0
  0
LINE
  5
EE5
330
EB7
100
AcDbEntity
  8
0
100
AcDbLine
 10
11.07797661592502
 20
19.99999999999711
 30
0.0
 11
5.089929923215144
 21
76.97245860216518
 31
0.0
  0
ENDBLK
  5
EB9
330
EB7
100
AcDbEntity
  8
0
100
AcDbBlockEnd
  0
BLOCK
  5
EE7
330
EE6
100
AcDbEntity
  8
0
100
AcDbBlockBegin
  2
ABR100-Right
 70
     0
 10
0.0
 20
0.0
 30
0.0
  3
ABR100-Right
  1

  0
LINE
  5
EE9
330
EE6
100
AcDbEntity
  8
0
100
AcDbLine
 10
-97.02283181144952
 20
2.0
 30
0.0
 11
-103.0
 21
2.0
 31
0.0
  0
LINE
  5
EEA
330
EE6
100
AcDbEntity
  8
0
100
AcDbLine
 10
-103.0
 20
2.0
 30
0.0
 11
-103.0
 21
0.0
 31
0.0
  0
LINE
  5
EEB
330
EE6
100
AcDbEntity
  8
0
100
AcDbLine
 10
0.0
 20
97.02283181146095
 30
0.0
 11
0.0
 21
103.0000000000089
 31
0.0
  0
LINE
  5
EEC
330
EE6
100
AcDbEntity
  8
0
100
AcDbLine
 10
0.0
 20
103.0000000000089
 30
0.0
 11
-1.999999999767896
 21
103.0000000000132
 31
0.0
  0
LINE
  5
EED
330
EE6
100
AcDbEntity
  8
0
100
AcDbLine
 10
-1.999999999767896
 20
103.0000000000132
 30
0.0
 11
-1.999999999778322
 21
97.02283181146528
 31
0.0
  0
LINE
  5
EEE
330
EE6
100
AcDbEntity
  8
0
100
AcDbLine
 10
-1.999999999778322
 20
97.02283181146528
 30
0.0
 11
0.0
 21
97.02283181146095
 31
0.0
  0
LINE
  5
EEF
330
EE6
100
AcDbEntity
  8
0
100
AcDbLine
 10
-103.0
 20
0.0
 30
0.0
 11
-97.02283181144952
 21
0.0
 31
0.0
  0
LINE
  5
EF0
330
EE6
100
AcDbEntity
  8
0
100
AcDbLine
 10
-97.02283181144952
 20
0.0
 30
0.0
 11
-97.02283181144952
 21
2.0
 31
0.0
  0
LINE
  5
EF1
330
EE6
100
AcDbEntity
  8
0
100
AcDbLine
 10
-97.02283181144952
 20
2.0
 30
0.0
 11
-82.99999999999998
 21
2.0
 31
0.0
  0
LINE
  5
EF2
330
EE6
100
AcDbEntity
  8
0
100
AcDbLine
 10
-97.02283181144952
 20
0.0
 30
0.0
 11
-83.0
 21
0.0
 31
0.0
  0
LINE
  5
EF3
330
EE6
100
AcDbEntity
  8
0
100
AcDbLine
 10
0.0
 20
97.02283181146095
 30
0.0
 11
0.0
 21
83.00000000001089
 31
0.0
  0
LINE
  5
EF4
330
EE6
100
AcDbEntity
  8
0
100
AcDbLine
 10
-1.999999999778322
 20
97.02283181146528
 30
0.0
 11
-1.999999999809275
 21
83.00000000001519
 31
0.0
  0
LINE
  5
EF5
330
EE6
100
AcDbEntity
  8
0
100
AcDbLine
 10
0.0
 20
76.97245860219196
 30
0.0
 11
0.0
 21
83.0000000000081
 31
0.0
  0
LINE
  5
EF6
330
EE6
100
AcDbEntity
  8
0
100
AcDbLine
 10
-76.97245860218242
 20
0.0
 30
0.0
 11
-83.0
 21
0.0
 31
0.0
  0
LINE
  5
EF7
330
EE6
100
AcDbEntity
  8
0
100
AcDbLine
 10
-3.028598650765344
 20
76.97245860219886
 30
0.0
 11
-5.08992992317672
 21
76.9724586022036
 31
0.0
  0
LINE
  5
EF8
330
EE6
100
AcDbEntity
  8
0
100
AcDbLine
 10
-0.0052781696156651
 20
76.97245860219196
 30
0.0
 11
-3.028598650765344
 21
76.97245860219886
 31
0.0
  0
LINE
  5
EF9
330
EE6
100
AcDbEntity
  8
0
100
AcDbLine
 10
-5.08992992317672
 20
76.9724586022036
 30
0.0
 11
0.0
 21
83.00000000001086
 31
0.0
  0
LINE
  5
EFA
330
EE6
100
AcDbEntity
  8
0
100
AcDbLine
 10
0.0
 20
76.97245860219192
 30
0.0
 11
-0.0052781696156649
 21
76.97245860219197
 31
0.0
  0
LINE
  5
EFB
330
EE6
100
AcDbEntity
  8
0
100
AcDbLine
 10
-5.610419308696247
 20
76.97245860220383
 30
0.0
 11
-1.999999999809274
 21
83.00000000001521
 31
0.0
  0
LINE
  5
EFC
330
EE6
100
AcDbEntity
  8
0
100
AcDbLine
 10
-5.08992992317672
 20
76.9724586022036
 30
0.0
 11
-5.610419308696247
 21
76.97245860220383
 31
0.0
  0
LINE
  5
EFD
330
EE6
100
AcDbEntity
  8
0
100
AcDbLine
 10
0.0
 20
83.00000000001089
 30
0.0
 11
-1.999999999809275
 21
83.00000000001519
 31
0.0
  0
LINE
  5
EFE
330
EE6
100
AcDbEntity
  8
0
100
AcDbLine
 10
-76.97245860218242
 20
5.089929923353654
 30
0.0
 11
-76.97245860218242
 21
3.028598650942029
 31
0.0
  0
LINE
  5
EFF
330
EE6
100
AcDbEntity
  8
0
100
AcDbLine
 10
-76.97245860218242
 20
5.089929923353652
 30
0.0
 11
-82.99999999999998
 21
0.0
 31
0.0
  0
LINE
  5
F00
330
EE6
100
AcDbEntity
  8
0
100
AcDbLine
 10
-76.97245860218242
 20
3.028598650942029
 30
0.0
 11
-76.97245860218242
 21
0.0052781697919824
 31
0.0
  0
LINE
  5
F01
330
EE6
100
AcDbEntity
  8
0
100
AcDbLine
 10
-76.97245860218245
 20
0.0052781697919807
 30
0.0
 11
-76.97245860218238
 21
0.0
 31
0.0
  0
LINE
  5
F02
330
EE6
100
AcDbEntity
  8
0
100
AcDbLine
 10
-76.97245860218242
 20
5.610419308872288
 30
0.0
 11
-82.99999999999998
 21
2.000000000000007
 31
0.0
  0
LINE
  5
F03
330
EE6
100
AcDbEntity
  8
0
100
AcDbLine
 10
-76.97245860218242
 20
5.610419308872288
 30
0.0
 11
-76.97245860218242
 21
5.089929923353654
 31
0.0
  0
LINE
  5
F04
330
EE6
100
AcDbEntity
  8
0
100
AcDbLine
 10
-83.0
 20
0.0
 30
0.0
 11
-82.99999999999998
 21
2.0
 31
0.0
  0
LINE
  5
F05
330
EE6
100
AcDbEntity
  8
0
100
AcDbLine
 10
0.0
 20
20.00000000000456
 30
0.0
 11
0.0
 21
76.97245860219196
 31
0.0
  0
LINE
  5
F06
330
EE6
100
AcDbEntity
  8
0
100
AcDbLine
 10
-20.0
 20
0.0
 30
0.0
 11
-76.97245860218242
 21
0.0
 31
0.0
  0
ARC
  5
F07
330
EE6
100
AcDbEntity
  8
0
100
AcDbCircle
 10
-19.99999999995209
 20
20.0000000000479
 30
0.0
 40
20.0
100
AcDbArc
 50
314.9999999997856
 51
0.0
  0
ARC
  5
F08
330
EE6
100
AcDbEntity
  8
0
100
AcDbCircle
 10
-20.0
 20
19.99999999999999
 30
0.0
 40
20.0
100
AcDbArc
 50
270.0
 51
314.9999999999798
  0
LINE
  5
F09
330
EE6
100
AcDbEntity
  8
0
100
AcDbLine
 10
-5.982981122360589
 20
20.00000000002111
 30
0.0
 11
0.0
 21
20.00000000000456
 31
0.0
  0
LINE
  5
F0A
330
EE6
100
AcDbEntity
  8
0
100
AcDbLine
 10
-5.982981122360589
 20
20.00000000002111
 30
0.0
 11
-11.07797661588937
 21
20.00000000003276
 31
0.0
  0
LINE
  5
F0B
330
EE6
100
AcDbEntity
  8
0
100
AcDbLine
 10
-11.07797661588937
 20
20.00000000003276
 30
0.0
 11
-11.59846600140888
 21
20.000000000033
 31
0.0
  0
ARC
  5
F0C
330
EE6
100
AcDbEntity
  8
0
100
AcDbCircle
 10
-20.0
 20
19.99999999999999
 30
0.0
 40
8.401533998539916
100
AcDbArc
 50
270.0
 51
0.0
  0
LINE
  5
F0D
330
EE6
100
AcDbEntity
  8
0
100
AcDbLine
 10
-20.0
 20
11.07797661594146
 30
0.0
 11
-20.0
 21
11.59846600146007
 31
0.0
  0
ARC
  5
F0E
330
EE6
100
AcDbEntity
  8
0
100
AcDbCircle
 10
-20.0
 20
19.99999999999999
 30
0.0
 40
8.92202338405853
100
AcDbArc
 50
270.0
 51
0.0
  0
LINE
  5
F0F
330
EE6
100
AcDbEntity
  8
0
100
AcDbLine
 10
-20.0
 20
5.982981122412067
 30
0.0
 11
-20.0
 21
11.07797661594146
 31
0.0
  0
LINE
  5
F10
330
EE6
100
AcDbEntity
  8
0
100
AcDbLine
 10
-19.99999999999998
 20
5.982981122412067
 30
0.0
 11
-20.0
 21
0.0
 31
0.0
  0
LINE
  5
F11
330
EE6
100
AcDbEntity
  8
0
100
AcDbLine
 10
-11.07797661588937
 20
20.00000000003276
 30
0.0
 11
-5.08992992317672
 21
76.9724586022036
 31
0.0
  0
LINE
  5
F12
330
EE6
100
AcDbEntity
  8
0
100
AcDbLine
 10
-5.610419308696247
 20
76.97245860220383
 30
0.0
 11
-11.59846600140888
 21
20.000000000033
 31
0.0
  0
LINE
  5
F13
330
EE6
100
AcDbEntity
  8
0
100
AcDbLine
 10
-76.97245860218242
 20
5.610419308872288
 30
0.0
 11
-20.0
 21
11.59846600146007
 31
0.0
  0
LINE
  5
F14
330
EE6
100
AcDbEntity
  8
0
100
AcDbLine
 10
-20.0
 20
11.07797661594146
 30
0.0
 11
-76.97245860218242
 21
5.089929923353654
 31
0.0
  0
ENDBLK
  5
EE8
330
EE6
100
AcDbEntity
  8
0
100
AcDbBlockEnd
  0
BLOCK
  5
F16
330
F15
100
AcDbEntity
  8
0
100
AcDbBlockBegin
  2
ABR100-Top
 70
     0
 10
0.0
 20
0.0
 30
0.0
  3
ABR100-Top
  1

  0
SPLINE
  5
F18
330
F15
100
AcDbEntity
  8
0
100
AcDbSpline
210
0.0
220
0.0
230
1.0
 70
     8
 71
     3
 72
    18
 73
    14
 74
     0
 42
0.000000001
 43
0.0000000001
 40
0.4768244973171896
 40
0.4768244973171896
 40
0.4768244973171896
 40
0.4768244973171896
 40
0.5664884413608245
 40
0.5664884413608245
 40
0.6607545772369912
 40
0.6607545772369912
 40
0.7550207131131579
 40
0.7550207131131579
 40
0.8492868489893245
 40
0.8492868489893245
 40
0.9435529848654912
 40
0.9435529848654912
 40
1.033216928909126
 40
1.033216928909126
 40
1.033216928909126
 40
1.033216928909126
 10
-24.79128784747793
 20
-20.0
 30
0.0
 10
-24.66439179031141
 20
-19.7092446063215
 30
0.0
 10
-24.47971895468981
 20
-19.44437769170072
 30
0.0
 10
-24.04658602794853
 20
-19.01085034234418
 30
0.0
 10
-23.76544125645976
 20
-18.81828345534892
 30
0.0
 10
-23.14926737665217
 20
-18.5628540385478
 30
0.0
 10
-22.81422045292057
 20
-18.50000000000001
 30
0.0
 10
-22.18577954707946
 20
-18.50000000000001
 30
0.0
 10
-21.85073262334785
 20
-18.5628540385478
 30
0.0
 10
-21.23455874354026
 20
-18.81828345534892
 30
0.0
 10
-20.9534139720515
 20
-19.01085034234418
 30
0.0
 10
-20.5202810453102
 20
-19.44437769170072
 30
0.0
 10
-20.33560820968861
 20
-19.7092446063215
 30
0.0
 10
-20.2087121525221
 20
-20.0
 30
0.0
  0
SPLINE
  5
F19
330
F15
100
AcDbEntity
  8
0
100
AcDbSpline
210
0.0
220
0.0
230
1.0
 70
     8
 71
     3
 72
    18
 73
    14
 74
     0
 42
0.000000001
 43
0.0000000001
 40
0.4768244973171913
 40
0.4768244973171913
 40
0.4768244973171913
 40
0.4768244973171913
 40
0.5664884413608247
 40
0.5664884413608247
 40
0.6607545772369914
 40
0.6607545772369914
 40
0.7550207131131581
 40
0.7550207131131581
 40
0.8492868489893247
 40
0.8492868489893247
 40
0.9435529848654912
 40
0.9435529848654912
 40
1.033216928909124
 40
1.033216928909124
 40
1.033216928909124
 40
1.033216928909124
 10
-9.791287847477919
 20
-20.0
 30
0.0
 10
-9.664391790311407
 20
-19.70924460632151
 30
0.0
 10
-9.479718954689809
 20
-19.44437769170073
 30
0.0
 10
-9.046586027948521
 20
-19.01085034234419
 30
0.0
 10
-8.765441256459755
 20
-18.81828345534893
 30
0.0
 10
-8.14926737665217
 20
-18.56285403854782
 30
0.0
 10
-7.814220452920562
 20
-18.50000000000002
 30
0.0
 10
-7.185779547079452
 20
-18.50000000000002
 30
0.0
 10
-6.850732623347845
 20
-18.56285403854782
 30
0.0
 10
-6.23455874354026
 20
-18.81828345534893
 30
0.0
 10
-5.953413972051494
 20
-19.01085034234419
 30
0.0
 10
-5.520281045310206
 20
-19.44437769170073
 30
0.0
 10
-5.33560820968861
 20
-19.70924460632151
 30
0.0
 10
-5.208712152522095
 20
-20.0
 30
0.0
  0
SPLINE
  5
F1A
330
F15
100
AcDbEntity
  8
0
100
AcDbSpline
210
0.0
220
0.0
230
1.0
 70
     8
 71
     3
 72
    18
 73
    14
 74
     0
 42
0.000000001
 43
0.0000000001
 40
0.4768244973171911
 40
0.4768244973171911
 40
0.4768244973171911
 40
0.4768244973171911
 40
0.5664884413608249
 40
0.5664884413608249
 40
0.6607545772369916
 40
0.6607545772369916
 40
0.7550207131131584
 40
0.7550207131131584
 40
0.849286848989325
 40
0.849286848989325
 40
0.9435529848654917
 40
0.9435529848654917
 40
1.033216928909125
 40
1.033216928909125
 40
1.033216928909125
 40
1.033216928909125
 10
5.208712152522077
 20
-20.0
 30
0.0
 10
5.335608209688592
 20
-19.7092446063215
 30
0.0
 10
5.520281045310188
 20
-19.44437769170073
 30
0.0
 10
5.953413972051476
 20
-19.01085034234419
 30
0.0
 10
6.234558743540246
 20
-18.81828345534892
 30
0.0
 10
6.85073262334783
 20
-18.56285403854781
 30
0.0
 10
7.185779547079437
 20
-18.50000000000001
 30
0.0
 10
7.814220452920547
 20
-18.50000000000001
 30
0.0
 10
8.149267376652154
 20
-18.56285403854781
 30
0.0
 10
8.765441256459737
 20
-18.81828345534892
 30
0.0
 10
9.046586027948507
 20
-19.01085034234419
 30
0.0
 10
9.479718954689795
 20
-19.44437769170072
 30
0.0
 10
9.664391790311393
 20
-19.70924460632151
 30
0.0
 10
9.791287847477907
 20
-20.0
 30
0.0
  0
SPLINE
  5
F1B
330
F15
100
AcDbEntity
  8
0
100
AcDbSpline
210
0.0
220
0.0
230
1.0
 70
     8
 71
     3
 72
    18
 73
    14
 74
     0
 42
0.000000001
 43
0.0000000001
 40
0.4768244973171895
 40
0.4768244973171895
 40
0.4768244973171895
 40
0.4768244973171895
 40
0.5664884413608242
 40
0.5664884413608242
 40
0.6607545772369907
 40
0.6607545772369907
 40
0.7550207131131574
 40
0.7550207131131574
 40
0.8492296915981738
 40
0.8492296915981738
 40
0.9434386700831902
 40
0.9434386700831902
 40
1.033213200495121
 40
1.033213200495121
 40
1.033213200495121
 40
1.033213200495121
 10
20.20871215252207
 20
-20.0
 30
0.0
 10
20.33560820968859
 20
-19.7092446063215
 30
0.0
 10
20.52028104531018
 20
-19.44437769170072
 30
0.0
 10
20.95341397205147
 20
-19.01085034234418
 30
0.0
 10
21.23455874354023
 20
-18.81828345534892
 30
0.0
 10
21.85073262334782
 20
-18.56285403854781
 30
0.0
 10
22.18577954707943
 20
-18.50000000000001
 30
0.0
 10
22.81402992828338
 20
-18.50000000000001
 30
0.0
 10
23.14888687542514
 20
-18.5627784790395
 30
0.0
 10
23.76477071249605
 20
-18.81792345348406
 30
0.0
 10
24.04581537348518
 20
-19.01028146755245
 30
0.0
 10
24.47927119749309
 20
-19.44373729156037
 30
0.0
 10
24.66424023096963
 20
-19.70889734024354
 30
0.0
 10
24.79128784747791
 20
-20.0
 30
0.0
  0
ARC
  5
F1C
330
F15
100
AcDbEntity
  8
0
100
AcDbCircle
 10
22.5
 20
-21.00000000000001
 30
0.0
 40
2.5
100
AcDbArc
 50
156.421821521798
 51
23.57817847820193
  0
ARC
  5
F1D
330
F15
100
AcDbEntity
  8
0
100
AcDbCircle
 10
7.499999999999992
 20
-21.00000000000002
 30
0.0
 40
2.5
100
AcDbArc
 50
156.4218215217977
 51
23.57817847820225
  0
ARC
  5
F1E
330
F15
100
AcDbEntity
  8
0
100
AcDbCircle
 10
-7.500000000000007
 20
-21.00000000000002
 30
0.0
 40
2.5
100
AcDbArc
 50
156.4218215217977
 51
23.57817847820225
  0
ARC
  5
F1F
330
F15
100
AcDbEntity
  8
0
100
AcDbCircle
 10
-22.50000000000001
 20
-21.00000000000001
 30
0.0
 40
2.5
100
AcDbArc
 50
156.421821521798
 51
23.57817847820193
  0
CIRCLE
  5
F20
330
F15
100
AcDbEntity
  8
0
100
AcDbCircle
 10
-30.00000000000001
 20
-91.00000000000001
 30
0.0
 40
2.5
  0
CIRCLE
  5
F21
330
F15
100
AcDbEntity
  8
0
100
AcDbCircle
 10
-17.50000000000001
 20
-66.00000000000001
 30
0.0
 40
2.5
  0
CIRCLE
  5
F22
330
F15
100
AcDbEntity
  8
0
100
AcDbCircle
 10
-15.00000000000001
 20
-36.00000000000001
 30
0.0
 40
2.5
  0
CIRCLE
  5
F23
330
F15
100
AcDbEntity
  8
0
100
AcDbCircle
 10
-25.00000000000001
 20
-51.00000000000001
 30
0.0
 40
2.5
  0
CIRCLE
  5
F24
330
F15
100
AcDbEntity
  8
0
100
AcDbCircle
 10
-0.0000000000000066
 20
-86.00000000000001
 30
0.0
 40
2.5
  0
CIRCLE
  5
F25
330
F15
100
AcDbEntity
  8
0
100
AcDbCircle
 10
25.0
 20
-51.00000000000001
 30
0.0
 40
2.5
  0
CIRCLE
  5
F26
330
F15
100
AcDbEntity
  8
0
100
AcDbCircle
 10
-0.0000000000000072
 20
-36.00000000000002
 30
0.0
 40
2.5
  0
CIRCLE
  5
F27
330
F15
100
AcDbEntity
  8
0
100
AcDbCircle
 10
14.99999999999999
 20
-36.00000000000001
 30
0.0
 40
2.5
  0
CIRCLE
  5
F28
330
F15
100
AcDbEntity
  8
0
100
AcDbCircle
 10
17.49999999999999
 20
-66.00000000000001
 30
0.0
 40
2.5
  0
CIRCLE
  5
F29
330
F15
100
AcDbEntity
  8
0
100
AcDbCircle
 10
30.0
 20
-91.00000000000001
 30
0.0
 40
2.5
  0
LINE
  5
F2A
330
F15
100
AcDbEntity
  8
0
100
AcDbLine
 10
-39.00000000000001
 20
-103.0
 30
0.0
 11
-44.47706554351405
 21
-97.02283181144952
 31
0.0
  0
LINE
  5
F2B
330
F15
100
AcDbEntity
  8
0
100
AcDbLine
 10
44.47706554351404
 20
-97.02283181144952
 30
0.0
 11
39.0
 21
-103.0
 31
0.0
  0
LINE
  5
F2C
330
F15
100
AcDbEntity
  8
0
100
AcDbLine
 10
44.4770655434693
 20
0.0
 30
0.0
 11
38.9999999999525
 21
0.0
 31
0.0
  0
LINE
  5
F2D
330
F15
100
AcDbEntity
  8
0
100
AcDbLine
 10
38.9999999999525
 20
0.0
 30
0.0
 11
38.99999999995342
 21
-1.999999999767896
 31
0.0
  0
LINE
  5
F2E
330
F15
100
AcDbEntity
  8
0
100
AcDbLine
 10
38.99999999995342
 20
-1.999999999767896
 30
0.0
 11
44.47706554347021
 21
-1.999999999778322
 31
0.0
  0
LINE
  5
F2F
330
F15
100
AcDbEntity
  8
0
100
AcDbLine
 10
44.47706554347021
 20
-1.999999999778322
 30
0.0
 11
44.4770655434693
 21
0.0
 31
0.0
  0
LINE
  5
F30
330
F15
100
AcDbEntity
  8
0
100
AcDbLine
 10
-39.00000000004658
 20
-1.999999999803861
 30
0.0
 11
-39.00000000004752
 21
0.0
 31
0.0
  0
LINE
  5
F31
330
F15
100
AcDbEntity
  8
0
100
AcDbLine
 10
-39.00000000004752
 20
0.0
 30
0.0
 11
-44.47706554355881
 21
0.0
 31
0.0
  0
LINE
  5
F32
330
F15
100
AcDbEntity
  8
0
100
AcDbLine
 10
-44.47706554355788
 20
-1.999999999819339
 30
0.0
 11
-39.00000000004658
 21
-1.999999999803861
 31
0.0
  0
LINE
  5
F33
330
F15
100
AcDbEntity
  8
0
100
AcDbLine
 10
-44.47706554355881
 20
0.0
 30
0.0
 11
-44.47706554355788
 21
-1.999999999819339
 31
0.0
  0
LINE
  5
F34
330
F15
100
AcDbEntity
  8
0
100
AcDbLine
 10
-39.00000000000001
 20
-103.0
 30
0.0
 11
39.0
 21
-103.0
 31
0.0
  0
LINE
  5
F35
330
F15
100
AcDbEntity
  8
0
100
AcDbLine
 10
44.47706554351404
 20
-97.02283181144952
 30
0.0
 11
43.25022672948151
 21
-82.99999999999998
 31
0.0
  0
LINE
  5
F36
330
F15
100
AcDbEntity
  8
0
100
AcDbLine
 10
-44.47706554351405
 20
-97.02283181144952
 30
0.0
 11
-43.25022672948152
 21
-83.0
 31
0.0
  0
LINE
  5
F37
330
F15
100
AcDbEntity
  8
0
100
AcDbLine
 10
43.25022672948151
 20
-82.99999999999998
 30
0.0
 11
39.45741276722143
 21
-82.99999999999997
 31
0.0
  0
LINE
  5
F38
330
F15
100
AcDbEntity
  8
0
100
AcDbLine
 10
-39.45741276722145
 20
-83.0
 30
0.0
 11
-43.25022672948152
 21
-83.0
 31
0.0
  0
LINE
  5
F39
330
F15
100
AcDbEntity
  8
0
100
AcDbLine
 10
41.66479642214842
 20
-5.08992992317672
 30
0.0
 11
42.33513115653914
 21
-2.937860035557648
 31
0.0
  0
SPLINE
  5
F3A
330
F15
100
AcDbEntity
  8
0
100
AcDbSpline
210
0.0
220
0.0
230
1.0
 70
     8
 71
     3
 72
    14
 73
    10
 74
     0
 42
0.000000001
 43
0.0000000001
 40
-0.0005833068336137
 40
-0.0005833068336137
 40
-0.0005833068336137
 40
-0.0005833068336137
 40
-0.0004706209334542
 40
-0.0004706209334542
 40
-0.0003516683788165
 40
-0.0003516683788165
 40
-0.0001762291901541
 40
-0.0001762291901541
 40
0.0
 40
0.0
 40
0.0
 40
0.0
 10
38.78465313157025
 20
-2.003299126241684
 30
0.0
 10
38.78455815887013
 20
-2.002935759804199
 30
0.0
 10
38.78441704644853
 20
-2.002586078788425
 30
0.0
 10
38.78403929898118
 20
-2.001912764870837
 30
0.0
 10
38.78379953944931
 20
-2.001594780935234
 30
0.0
 10
38.78310913824087
 20
-2.000897557310855
 30
0.0
 10
38.78261927320958
 20
-2.000567840949921
 30
0.0
 10
38.78153751158656
 20
-2.000116383319488
 30
0.0
 10
38.78095575712963
 20
-1.999999999824396
 30
0.0
 10
38.78036832649577
 20
-1.999999999824396
 30
0.0
  0
LINE
  5
F3B
330
F15
100
AcDbEntity
  8
0
100
AcDbLine
 10
39.72744230537291
 20
-5.610419308696247
 30
0.0
 11
38.78465313157025
 21
-2.003299126241685
 31
0.0
  0
LINE
  5
F3C
330
F15
100
AcDbEntity
  8
0
100
AcDbLine
 10
39.7274423053729
 20
-5.610419308696247
 30
0.0
 11
43.25022672944417
 21
-1.999999999809274
 31
0.0
  0
LINE
  5
F3D
330
F15
100
AcDbEntity
  8
0
100
AcDbLine
 10
41.66479642214842
 20
-5.08992992317672
 30
0.0
 11
39.72744230537291
 21
-5.610419308696247
 31
0.0
  0
LINE
  5
F3E
330
F15
100
AcDbEntity
  8
0
100
AcDbLine
 10
-41.66479642221474
 20
-5.089929923215144
 30
0.0
 11
-42.33513115660894
 21
-2.937860035599342
 31
0.0
  0
SPLINE
  5
F3F
330
F15
100
AcDbEntity
  8
0
100
AcDbSpline
210
0.0
220
0.0
230
1.0
 70
     8
 71
     3
 72
    14
 73
    10
 74
     0
 42
0.000000001
 43
0.0000000001
 40
-0.000583230480947
 40
-0.000583230480947
 40
-0.000583230480947
 40
-0.000583230480947
 40
-0.0004694205920055
 40
-0.0004694205920055
 40
-0.0003494573215722
 40
-0.0003494573215722
 40
-0.0001747183185168
 40
-0.0001747183185168
 40
0.0
 40
0.0
 40
0.0
 40
0.0
 10
-38.78036832656494
 20
-1.99999999986016
 30
0.0
 10
-38.78074774160355
 20
-1.99999999986016
 30
0.0
 10
-38.78112563294543
 20
-2.000048551879249
 30
0.0
 10
-38.7818796283198
 20
-2.000245678283461
 30
0.0
 10
-38.78225114259873
 20
-2.00039863333985
 30
0.0
 10
-38.78310091392485
 20
-2.000891667548944
 30
0.0
 10
-38.78354219453056
 20
-2.001280509939708
 30
0.0
 10
-38.78424817018469
 20
-2.002207118992755
 30
0.0
 10
-38.784505859106
 20
-2.002735660189478
 30
0.0
 10
-38.7846531316394
 20
-2.003299126277453
 30
0.0
  0
LINE
  5
F40
330
F15
100
AcDbEntity
  8
0
100
AcDbLine
 10
-38.7846531316394
 20
-2.003299126277453
 30
0.0
 11
-39.72744230543872
 21
-5.610419308732883
 31
0.0
  0
LINE
  5
F41
330
F15
100
AcDbEntity
  8
0
100
AcDbLine
 10
-39.72744230543873
 20
-5.610419308732883
 30
0.0
 11
-43.25022672951889
 21
-1.99999999984916
 31
0.0
  0
LINE
  5
F42
330
F15
100
AcDbEntity
  8
0
100
AcDbLine
 10
-39.72744230543872
 20
-5.610419308732883
 30
0.0
 11
-41.66479642221474
 21
-5.089929923215144
 31
0.0
  0
LINE
  5
F43
330
F15
100
AcDbEntity
  8
0
100
AcDbLine
 10
41.66479642218156
 20
-76.97245860218242
 30
0.0
 11
43.25022672948152
 21
-82.99999999999998
 31
0.0
  0
LINE
  5
F44
330
F15
100
AcDbEntity
  8
0
100
AcDbLine
 10
38.78036832653034
 20
-76.97245860218242
 30
0.0
 11
38.78465313160481
 21
-76.97245860218244
 31
0.0
  0
LINE
  5
F45
330
F15
100
AcDbEntity
  8
0
100
AcDbLine
 10
38.78465313160481
 20
-76.97245860218242
 30
0.0
 11
39.7274423054058
 21
-76.97245860218242
 31
0.0
  0
LINE
  5
F46
330
F15
100
AcDbEntity
  8
0
100
AcDbLine
 10
39.7274423054058
 20
-76.97245860218242
 30
0.0
 11
43.25022672948151
 21
-82.99999999999998
 31
0.0
  0
LINE
  5
F47
330
F15
100
AcDbEntity
  8
0
100
AcDbLine
 10
39.7274423054058
 20
-76.97245860218242
 30
0.0
 11
41.66479642218156
 21
-76.97245860218242
 31
0.0
  0
LINE
  5
F48
330
F15
100
AcDbEntity
  8
0
100
AcDbLine
 10
-41.66479642218158
 20
-76.97245860218242
 30
0.0
 11
-43.25022672948153
 21
-82.99999999999998
 31
0.0
  0
LINE
  5
F49
330
F15
100
AcDbEntity
  8
0
100
AcDbLine
 10
-38.78465313160484
 20
-76.97245860218244
 30
0.0
 11
-38.78036832653037
 21
-76.97245860218242
 31
0.0
  0
LINE
  5
F4A
330
F15
100
AcDbEntity
  8
0
100
AcDbLine
 10
-39.72744230540582
 20
-76.97245860218242
 30
0.0
 11
-38.78465313160484
 21
-76.97245860218242
 31
0.0
  0
LINE
  5
F4B
330
F15
100
AcDbEntity
  8
0
100
AcDbLine
 10
-39.72744230540582
 20
-76.97245860218242
 30
0.0
 11
-43.25022672948153
 21
-83.0
 31
0.0
  0
LINE
  5
F4C
330
F15
100
AcDbEntity
  8
0
100
AcDbLine
 10
-41.66479642218158
 20
-76.97245860218242
 30
0.0
 11
-39.72744230540582
 21
-76.97245860218242
 31
0.0
  0
CIRCLE
  5
F4D
330
F15
100
AcDbEntity
  8
0
100
AcDbCircle
 10
-0.0000000000000068
 20
-71.00000000000001
 30
0.0
 40
6.0
  0
LINE
  5
F4E
330
F15
100
AcDbEntity
  8
0
100
AcDbLine
 10
38.9999999999525
 20
0.0
 30
0.0
 11
-39.00000000004752
 21
0.0
 31
0.0
  0
LINE
  5
F4F
330
F15
100
AcDbEntity
  8
0
100
AcDbLine
 10
-39.00000000004658
 20
-1.999999999803861
 30
0.0
 11
38.99999999995343
 21
-1.999999999767896
 31
0.0
  0
SPLINE
  5
F50
330
F15
100
AcDbEntity
  8
0
100
AcDbSpline
210
0.0
220
0.0
230
1.0
 70
     8
 71
     3
 72
    14
 73
    10
 74
     0
 42
0.000000001
 43
0.0000000001
 40
0.0
 40
0.0
 40
0.0
 40
0.0
 40
0.1994539785936939
 40
0.1994539785936939
 40
0.3982062626070955
 40
0.3982062626070955
 40
0.5330794353046033
 40
0.5330794353046033
 40
0.6608611733067776
 40
0.6608611733067776
 40
0.6608611733067776
 40
0.6608611733067776
 10
30.34014586853629
 20
-1.999999999951744
 30
0.0
 10
31.0049924638486
 20
-1.999999999951437
 30
0.0
 10
31.66341332574685
 20
-2.131815861208781
 30
0.0
 10
32.88834847397509
 20
-2.643039935648852
 30
0.0
 10
33.4433283532968
 20
-3.016632817760584
 30
0.0
 10
34.22582183643877
 20
-3.806752417369405
 30
0.0
 10
34.49770271614112
 20
-4.167306890352467
 30
0.0
 10
34.92607960162605
 20
-4.930790020890622
 30
0.0
 10
35.08611658121911
 20
-5.327334184951748
 30
0.0
 10
35.19381640210429
 20
-5.739394705327405
 30
0.0
  0
LINE
  5
F51
330
F15
100
AcDbEntity
  8
0
100
AcDbLine
 10
38.66254976522498
 20
-11.07797661588937
 30
0.0
 11
36.72519564844952
 21
-11.59846600140888
 31
0.0
  0
LINE
  5
F52
330
F15
100
AcDbEntity
  8
0
100
AcDbLine
 10
36.72519564844952
 20
-11.59846600140888
 30
0.0
 11
35.19381640210429
 21
-5.739394705327405
 31
0.0
  0
SPLINE
  5
F53
330
F15
100
AcDbEntity
  8
0
100
AcDbSpline
210
0.0
220
0.0
230
1.0
 70
     8
 71
     3
 72
    14
 73
    10
 74
     0
 42
0.000000001
 43
0.0000000001
 40
0.0
 40
0.0
 40
0.0
 40
0.0
 40
0.199453978593692
 40
0.199453978593692
 40
0.398206262607084
 40
0.398206262607084
 40
0.533079435304611
 40
0.533079435304611
 40
0.6608611733068291
 40
0.6608611733068291
 40
0.6608611733068291
 40
0.6608611733068291
 10
-30.34014586855291
 20
-1.999999999979724
 30
0.0
 10
-31.00499246386521
 20
-1.99999999998003
 30
0.0
 10
-31.66341332576334
 20
-2.13181586123798
 30
0.0
 10
-32.88834847399112
 20
-2.643039935679177
 30
0.0
 10
-33.4433283533125
 20
-3.016632817791423
 30
0.0
 10
-34.22582183645381
 20
-3.806752417401046
 30
0.0
 10
-34.49770271615577
 20
-4.167306890384335
 30
0.0
 10
-34.92607960163999
 20
-4.930790020922865
 30
0.0
 10
-35.08611658123267
 20
-5.327334184984122
 30
0.0
 10
-35.19381640211746
 20
-5.739394705359859
 30
0.0
  0
LINE
  5
F54
330
F15
100
AcDbEntity
  8
0
100
AcDbLine
 10
30.34014586854458
 20
-20.0
 30
0.0
 11
35.19381640211086
 21
-20.0
 31
0.0
  0
LINE
  5
F55
330
F15
100
AcDbEntity
  8
0
100
AcDbLine
 10
36.72519564845339
 20
-20.0
 30
0.0
 11
35.19381640211086
 21
-20.0
 31
0.0
  0
LINE
  5
F56
330
F15
100
AcDbEntity
  8
0
100
AcDbLine
 10
36.72519564845339
 20
-20.0
 30
0.0
 11
36.72519564845339
 21
-11.59846600146008
 31
0.0
  0
LINE
  5
F57
330
F15
100
AcDbEntity
  8
0
100
AcDbLine
 10
38.6625497652291
 20
-20.0
 30
0.0
 11
36.72519564845339
 21
-20.0
 31
0.0
  0
LINE
  5
F58
330
F15
100
AcDbEntity
  8
0
100
AcDbLine
 10
38.6625497652291
 20
-20.0
 30
0.0
 11
38.6625497652291
 21
-11.07797661594147
 31
0.0
  0
LINE
  5
F59
330
F15
100
AcDbEntity
  8
0
100
AcDbLine
 10
-30.34014586854461
 20
-20.0
 30
0.0
 11
-35.19381640211089
 21
-20.0
 31
0.0
  0
LINE
  5
F5A
330
F15
100
AcDbEntity
  8
0
100
AcDbLine
 10
-36.7251956484534
 20
-20.0
 30
0.0
 11
-36.7251956484534
 21
-11.59846600146008
 31
0.0
  0
LINE
  5
F5B
330
F15
100
AcDbEntity
  8
0
100
AcDbLine
 10
-36.7251956484534
 20
-20.0
 30
0.0
 11
-35.19381640211089
 21
-20.0
 31
0.0
  0
LINE
  5
F5C
330
F15
100
AcDbEntity
  8
0
100
AcDbLine
 10
-36.72519564845728
 20
-11.59846600144274
 30
0.0
 11
-35.19381640211746
 21
-5.739394705359859
 31
0.0
  0
LINE
  5
F5D
330
F15
100
AcDbEntity
  8
0
100
AcDbLine
 10
-38.66254976522911
 20
-20.0
 30
0.0
 11
-38.66254976522911
 21
-11.07797661594147
 31
0.0
  0
LINE
  5
F5E
330
F15
100
AcDbEntity
  8
0
100
AcDbLine
 10
-38.66254976522911
 20
-20.0
 30
0.0
 11
-36.7251956484534
 21
-20.0
 31
0.0
  0
LINE
  5
F5F
330
F15
100
AcDbEntity
  8
0
100
AcDbLine
 10
-38.66254976523323
 20
-11.07797661592502
 30
0.0
 11
-36.72519564845728
 21
-11.59846600144274
 31
0.0
  0
LINE
  5
F60
330
F15
100
AcDbEntity
  8
0
100
AcDbLine
 10
38.66254976522498
 20
-11.07797661588937
 30
0.0
 11
41.66479642214842
 21
-5.08992992317672
 31
0.0
  0
LINE
  5
F61
330
F15
100
AcDbEntity
  8
0
100
AcDbLine
 10
39.72744230537291
 20
-5.610419308696247
 30
0.0
 11
36.72519564844952
 21
-11.59846600140888
 31
0.0
  0
LINE
  5
F62
330
F15
100
AcDbEntity
  8
0
100
AcDbLine
 10
39.7274423054058
 20
-76.97245860218242
 30
0.0
 11
36.72519564845339
 21
-20.0
 31
0.0
  0
LINE
  5
F63
330
F15
100
AcDbEntity
  8
0
100
AcDbLine
 10
38.6625497652291
 20
-20.0
 30
0.0
 11
41.66479642218156
 21
-76.97245860218242
 31
0.0
  0
LINE
  5
F64
330
F15
100
AcDbEntity
  8
0
100
AcDbLine
 10
-38.66254976522911
 20
-20.0
 30
0.0
 11
-41.66479642218158
 21
-76.97245860218242
 31
0.0
  0
LINE
  5
F65
330
F15
100
AcDbEntity
  8
0
100
AcDbLine
 10
-39.72744230540582
 20
-76.97245860218242
 30
0.0
 11
-36.7251956484534
 21
-20.0
 31
0.0
  0
LINE
  5
F66
330
F15
100
AcDbEntity
  8
0
100
AcDbLine
 10
-39.72744230543872
 20
-5.610419308732883
 30
0.0
 11
-36.72519564845728
 21
-11.59846600144274
 31
0.0
  0
LINE
  5
F67
330
F15
100
AcDbEntity
  8
0
100
AcDbLine
 10
-38.66254976523323
 20
-11.07797661592502
 30
0.0
 11
-41.66479642221474
 21
-5.089929923215144
 31
0.0
  0
ENDBLK
  5
F17
330
F15
100
AcDbEntity
  8
0
100
AcDbBlockEnd
  0
BLOCK
  5
F69
330
F68
100
AcDbEntity
  8
0
100
AcDbBlockBegin
  2
ABR100-Bottom
 70
     0
 10
0.0
 20
0.0
 30
0.0
  3
ABR100-Bottom
  1

  0
LINE
  5
F6B
330
F68
100
AcDbEntity
  8
0
100
AcDbLine
 10
-44.47706554351404
 20
97.02283181144952
 30
0.0
 11
-39.00000000000002
 21
103.0
 31
0.0
  0
LINE
  5
F6C
330
F68
100
AcDbEntity
  8
0
100
AcDbLine
 10
44.47706554347021
 20
1.999999999778322
 30
0.0
 11
44.4770655434693
 21
0.0
 31
0.0
  0
LINE
  5
F6D
330
F68
100
AcDbEntity
  8
0
100
AcDbLine
 10
-44.47706554355881
 20
0.0
 30
0.0
 11
-44.47706554355788
 21
1.999999999819339
 31
0.0
  0
LINE
  5
F6E
330
F68
100
AcDbEntity
  8
0
100
AcDbLine
 10
39.0
 20
103.0
 30
0.0
 11
44.47706554351405
 21
97.02283181144952
 31
0.0
  0
LINE
  5
F6F
330
F68
100
AcDbEntity
  8
0
100
AcDbLine
 10
39.0
 20
103.0
 30
0.0
 11
-39.00000000000002
 21
103.0
 31
0.0
  0
LINE
  5
F70
330
F68
100
AcDbEntity
  8
0
100
AcDbLine
 10
-44.47706554351404
 20
97.02283181144952
 30
0.0
 11
-43.25022672948152
 21
82.99999999999998
 31
0.0
  0
LINE
  5
F71
330
F68
100
AcDbEntity
  8
0
100
AcDbLine
 10
44.47706554351405
 20
97.02283181144952
 30
0.0
 11
43.25022672948151
 21
83.0
 31
0.0
  0
LINE
  5
F72
330
F68
100
AcDbEntity
  8
0
100
AcDbLine
 10
44.4770655434693
 20
0.0
 30
0.0
 11
43.25022672944323
 21
0.0
 31
0.0
  0
LINE
  5
F73
330
F68
100
AcDbEntity
  8
0
100
AcDbLine
 10
-44.47706554355881
 20
0.0
 30
0.0
 11
-43.2502267295198
 21
0.0
 31
0.0
  0
LINE
  5
F74
330
F68
100
AcDbEntity
  8
0
100
AcDbLine
 10
-44.47706554355788
 20
1.999999999819339
 30
0.0
 11
-43.25022672951887
 21
1.999999999849159
 31
0.0
  0
LINE
  5
F75
330
F68
100
AcDbEntity
  8
0
100
AcDbLine
 10
44.47706554347021
 20
1.999999999778322
 30
0.0
 11
43.25022672944416
 21
1.999999999809275
 31
0.0
  0
LINE
  5
F76
330
F68
100
AcDbEntity
  8
0
100
AcDbLine
 10
40.32896903240298
 20
0.0
 30
0.0
 11
43.25022672944323
 21
0.0
 31
0.0
  0
LINE
  5
F77
330
F68
100
AcDbEntity
  8
0
100
AcDbLine
 10
-43.2502267295198
 20
0.0
 30
0.0
 11
-40.32896903247398
 21
0.0
 31
0.0
  0
LINE
  5
F78
330
F68
100
AcDbEntity
  8
0
100
AcDbLine
 10
-43.25022672951887
 20
1.999999999849159
 30
0.0
 11
-43.2502267295198
 21
0.0
 31
0.0
  0
LINE
  5
F79
330
F68
100
AcDbEntity
  8
0
100
AcDbLine
 10
-43.25022672948152
 20
82.99999999999998
 30
0.0
 11
-37.25022672948153
 21
82.99999999999998
 31
0.0
  0
LINE
  5
F7A
330
F68
100
AcDbEntity
  8
0
100
AcDbLine
 10
37.25022672948151
 20
82.99999999999998
 30
0.0
 11
43.25022672948151
 21
83.0
 31
0.0
  0
LINE
  5
F7B
330
F68
100
AcDbEntity
  8
0
100
AcDbLine
 10
41.12602845519702
 20
3.028598650765344
 30
0.0
 11
41.66479642214842
 21
5.08992992317672
 31
0.0
  0
LINE
  5
F7C
330
F68
100
AcDbEntity
  8
0
100
AcDbLine
 10
40.33582638972984
 20
0.0052781696156651
 30
0.0
 11
41.12602845519702
 21
3.028598650765344
 31
0.0
  0
LINE
  5
F7D
330
F68
100
AcDbEntity
  8
0
100
AcDbLine
 10
41.66479642214842
 20
5.08992992317672
 30
0.0
 11
43.25022672944324
 21
0.0
 31
0.0
  0
SPLINE
  5
F7E
330
F68
100
AcDbEntity
  8
0
100
AcDbSpline
210
0.0
220
0.0
230
1.0
 70
     8
 71
     3
 72
    14
 73
    10
 74
     0
 42
0.000000001
 43
0.0000000001
 40
-0.0009332904604101
 40
-0.0009332904604101
 40
-0.0009332904604101
 40
-0.0009332904604101
 40
-0.0007510588409114
 40
-0.0007510588409114
 40
-0.0005590192661093
 40
-0.0005590192661093
 40
-0.0002794705695846
 40
-0.0002794705695846
 40
0.0
 40
0.0
 40
0.0
 40
0.0
 10
40.32896903240295
 20
-0.0000000001763228
 30
0.0
 10
40.32957655593867
 20
-0.0000000001763238
 30
0.0
 10
40.33018164349821
 20
0.0000777247601988
 30
0.0
 10
40.3313888051336
 20
0.0003933150199752
 30
0.0
 10
40.33198354092905
 20
0.0006381575026409
 30
0.0
 10
40.33334334987364
 20
0.0014271589237629
 30
0.0
 10
40.33404931525002
 20
0.0020491980768011
 30
0.0
 10
40.335178647375
 20
0.0035314754567925
 30
0.0
 10
40.33559082004749
 20
0.0043768778113201
 30
0.0
 10
40.33582638972984
 20
0.0052781696156649
 30
0.0
  0
LINE
  5
F7F
330
F68
100
AcDbEntity
  8
0
100
AcDbLine
 10
42.33513115653914
 20
2.937860035557646
 30
0.0
 11
43.25022672944417
 21
1.999999999809274
 31
0.0
  0
LINE
  5
F80
330
F68
100
AcDbEntity
  8
0
100
AcDbLine
 10
43.25022672944323
 20
0.0
 30
0.0
 11
43.25022672944416
 21
1.999999999809275
 31
0.0
  0
LINE
  5
F81
330
F68
100
AcDbEntity
  8
0
100
AcDbLine
 10
-41.66479642221474
 20
5.089929923215144
 30
0.0
 11
-41.12602845526524
 21
3.02859865080327
 31
0.0
  0
LINE
  5
F82
330
F68
100
AcDbEntity
  8
0
100
AcDbLine
 10
-41.66479642221474
 20
5.089929923215144
 30
0.0
 11
-43.2502267295198
 21
0.0
 31
0.0
  0
LINE
  5
F83
330
F68
100
AcDbEntity
  8
0
100
AcDbLine
 10
-41.12602845526524
 20
3.02859865080327
 30
0.0
 11
-40.33582638980084
 21
0.0052781696528592
 31
0.0
  0
SPLINE
  5
F84
330
F68
100
AcDbEntity
  8
0
100
AcDbSpline
210
0.0
220
0.0
230
1.0
 70
     8
 71
     3
 72
    14
 73
    10
 74
     0
 42
0.000000001
 43
0.0000000001
 40
-0.0009334263843112
 40
-0.0009334263843112
 40
-0.0009334263843112
 40
-0.0009334263843112
 40
-0.0007531932240365
 40
-0.0007531932240365
 40
-0.0005629245092725
 40
-0.0005629245092725
 40
-0.00028215879572
 40
-0.00028215879572
 40
0.0
 40
0.0
 40
0.0
 40
0.0
 10
-40.33582638980084
 20
0.0052781696528591
 30
0.0
 10
-40.33567449021638
 20
0.0046970004242909
 30
0.0
 10
-40.33544880584975
 20
0.004137723894306
 30
0.0
 10
-40.3348446388417
 20
0.0030607748421026
 30
0.0
 10
-40.33446115748342
 20
0.0025521565130551
 30
0.0
 10
-40.33335655972813
 20
0.0014365549409135
 30
0.0
 10
-40.33257260506747
 20
0.0009089314332536
 30
0.0
 10
-40.33084101362906
 20
0.0001862852691679
 30
0.0
 10
-40.32990956179304
 20
-0.0000000001391305
 30
0.0
 10
-40.32896903247397
 20
-0.0000000001391315
 30
0.0
  0
LINE
  5
F85
330
F68
100
AcDbEntity
  8
0
100
AcDbLine
 10
-42.33513115660897
 20
2.937860035599343
 30
0.0
 11
-43.25022672951889
 21
1.999999999849159
 31
0.0
  0
LINE
  5
F86
330
F68
100
AcDbEntity
  8
0
100
AcDbLine
 10
41.66479642218156
 20
76.97245860218242
 30
0.0
 11
41.12602845523112
 21
76.97245860218242
 31
0.0
  0
LINE
  5
F87
330
F68
100
AcDbEntity
  8
0
100
AcDbLine
 10
41.66479642218156
 20
76.97245860218242
 30
0.0
 11
43.25022672948152
 21
82.99999999999998
 31
0.0
  0
LINE
  5
F88
330
F68
100
AcDbEntity
  8
0
100
AcDbLine
 10
41.12602845523112
 20
76.97245860218242
 30
0.0
 11
40.33582638976533
 21
76.97245860218242
 31
0.0
  0
LINE
  5
F89
330
F68
100
AcDbEntity
  8
0
100
AcDbLine
 10
40.33582638976533
 20
76.97245860218245
 30
0.0
 11
40.32896903243845
 21
76.97245860218238
 31
0.0
  0
LINE
  5
F8A
330
F68
100
AcDbEntity
  8
0
100
AcDbLine
 10
-41.12602845523113
 20
76.97245860218242
 30
0.0
 11
-41.66479642218158
 21
76.97245860218242
 31
0.0
  0
LINE
  5
F8B
330
F68
100
AcDbEntity
  8
0
100
AcDbLine
 10
-40.33582638976534
 20
76.97245860218242
 30
0.0
 11
-41.12602845523113
 21
76.97245860218242
 31
0.0
  0
LINE
  5
F8C
330
F68
100
AcDbEntity
  8
0
100
AcDbLine
 10
-41.66479642218158
 20
76.97245860218242
 30
0.0
 11
-43.25022672948153
 21
82.99999999999998
 31
0.0
  0
LINE
  5
F8D
330
F68
100
AcDbEntity
  8
0
100
AcDbLine
 10
-40.32896903243847
 20
76.97245860218238
 30
0.0
 11
-40.33582638976534
 21
76.97245860218245
 31
0.0
  0
LINE
  5
F8E
330
F68
100
AcDbEntity
  8
0
100
AcDbLine
 10
29.5658454270695
 20
0.0
 30
0.0
 11
40.32896903240298
 21
0.0
 31
0.0
  0
LINE
  5
F8F
330
F68
100
AcDbEntity
  8
0
100
AcDbLine
 10
-29.56584542708796
 20
0.0
 30
0.0
 11
-40.32896903247398
 21
0.0
 31
0.0
  0
LINE
  5
F90
330
F68
100
AcDbEntity
  8
0
100
AcDbLine
 10
29.5658454270695
 20
0.0
 30
0.0
 11
-29.56584542708796
 21
0.0
 31
0.0
  0
SPLINE
  5
F91
330
F68
100
AcDbEntity
  8
0
100
AcDbSpline
210
0.0
220
0.0
230
1.0
 70
     8
 71
     3
 72
    14
 73
    10
 74
     0
 42
0.000000001
 43
0.0000000001
 40
0.0
 40
0.0
 40
0.0
 40
0.0
 40
0.316955678396775
 40
0.316955678396775
 40
0.6338765505461348
 40
0.6338765505461348
 40
0.8511809199165252
 40
0.8511809199165252
 40
1.057197109345474
 40
1.057197109345474
 40
1.057197109345474
 40
1.057197109345474
 10
37.33087620046897
 20
5.982981122360589
 30
0.0
 10
37.06370979153558
 20
4.960799947060834
 30
0.0
 10
36.59620669064736
 20
4.001949888545645
 30
0.0
 10
35.31564270083424
 20
2.321193349879631
 30
0.0
 10
34.51528755647266
 20
1.615868554243634
 30
0.0
 10
32.97487803014582
 20
0.7221519649222984
 30
0.0
 10
32.30193299141222
 20
0.4450143000387197
 30
0.0
 10
30.93665300496309
 20
0.0879697549966883
 30
0.0
 10
30.25262731595605
 20
-0.0000000000482215
 30
0.0
 10
29.5658454270695
 20
-0.0000000000479044
 30
0.0
  0
LINE
  5
F92
330
F68
100
AcDbEntity
  8
0
100
AcDbLine
 10
37.33087620046897
 20
5.982981122360589
 30
0.0
 11
38.66254976522498
 21
11.07797661588937
 31
0.0
  0
SPLINE
  5
F93
330
F68
100
AcDbEntity
  8
0
100
AcDbSpline
210
0.0
220
0.0
230
1.0
 70
     8
 71
     3
 72
    14
 73
    10
 74
     0
 42
0.000000001
 43
0.0000000001
 40
0.0
 40
0.0
 40
0.0
 40
0.0
 40
0.3169556783967818
 40
0.3169556783967818
 40
0.6338765505461569
 40
0.6338765505461569
 40
0.8511809199165508
 40
0.8511809199165508
 40
1.057197109345501
 40
1.057197109345501
 40
1.057197109345501
 40
1.057197109345501
 10
-37.33087620048191
 20
5.982981122395015
 30
0.0
 10
-37.06370979154947
 20
4.960799947094991
 30
0.0
 10
-36.59620669066209
 20
4.001949888579352
 30
0.0
 10
-35.31564270085056
 20
2.3211933499122
 30
0.0
 10
-34.51528755648964
 20
1.615868554275472
 30
0.0
 10
-32.97487803016363
 20
0.7221519649527202
 30
0.0
 10
-32.30193299143031
 20
0.4450143000685163
 30
0.0
 10
-30.93665300498147
 20
0.0879697550252113
 30
0.0
 10
-30.25262731597451
 20
-0.0000000000203225
 30
0.0
 10
-29.56584542708796
 20
-0.0000000000206387
 30
0.0
  0
LINE
  5
F94
330
F68
100
AcDbEntity
  8
0
100
AcDbLine
 10
38.6625497652291
 20
11.07797661594147
 30
0.0
 11
38.6625497652291
 21
20.0
 31
0.0
  0
LINE
  5
F95
330
F68
100
AcDbEntity
  8
0
100
AcDbLine
 10
37.33087620047543
 20
20.0
 30
0.0
 11
38.6625497652291
 21
20.0
 31
0.0
  0
LINE
  5
F96
330
F68
100
AcDbEntity
  8
0
100
AcDbLine
 10
37.33087620047543
 20
19.99999999999998
 30
0.0
 11
29.56584542707871
 21
20.0
 31
0.0
  0
LINE
  5
F97
330
F68
100
AcDbEntity
  8
0
100
AcDbLine
 10
-38.66254976522911
 20
11.07797661594147
 30
0.0
 11
-38.66254976522911
 21
20.0
 31
0.0
  0
LINE
  5
F98
330
F68
100
AcDbEntity
  8
0
100
AcDbLine
 10
-37.33087620047545
 20
20.0
 30
0.0
 11
-38.66254976522911
 21
20.0
 31
0.0
  0
LINE
  5
F99
330
F68
100
AcDbEntity
  8
0
100
AcDbLine
 10
-37.33087620048191
 20
5.982981122395015
 30
0.0
 11
-38.66254976523323
 21
11.07797661592502
 31
0.0
  0
LINE
  5
F9A
330
F68
100
AcDbEntity
  8
0
100
AcDbLine
 10
-37.33087620047545
 20
19.99999999999998
 30
0.0
 11
-29.56584542707873
 21
20.0
 31
0.0
  0
CIRCLE
  5
F9B
330
F68
100
AcDbEntity
  8
0
100
AcDbCircle
 10
-30.00000000000001
 20
91.00000000000001
 30
0.0
 40
2.5
  0
CIRCLE
  5
F9C
330
F68
100
AcDbEntity
  8
0
100
AcDbCircle
 10
-17.50000000000001
 20
66.00000000000001
 30
0.0
 40
2.5
  0
CIRCLE
  5
F9D
330
F68
100
AcDbEntity
  8
0
100
AcDbCircle
 10
-15.00000000000001
 20
36.00000000000001
 30
0.0
 40
2.5
  0
SPLINE
  5
F9E
330
F68
100
AcDbEntity
  8
0
100
AcDbSpline
210
0.0
220
0.0
230
1.0
 70
     8
 71
     3
 72
    19
 73
    15
 74
     0
 42
0.000000001
 43
0.0000000001
 40
-0.2781749964885137
 40
-0.2781749964885137
 40
-0.2781749964885137
 40
-0.2781749964885137
 40
-0.1884962878414842
 40
-0.1884962878414842
 40
-0.0942481439207421
 40
-0.0942481439207421
 40
0.0
 40
0.0
 40
0.0
 40
0.0942481439207421
 40
0.0942481439207421
 40
0.1884962878414842
 40
0.1884962878414842
 40
0.2781749964885142
 40
0.2781749964885142
 40
0.2781749964885142
 40
0.2781749964885142
 10
-20.20871215252209
 20
20.0
 30
0.0
 10
-20.33563839780448
 20
19.70917543665847
 30
0.0
 10
-20.52036268010617
 20
19.44425939870004
 30
0.0
 10
-20.95356297809441
 20
19.01073967572941
 30
0.0
 10
-21.23470294897491
 20
18.81820448659268
 30
0.0
 10
-21.85083402056525
 20
18.56283120254688
 30
0.0
 10
-22.18583952026421
 20
18.50000000000001
 30
0.0
 10
-22.50000000000001
 20
18.50000000000001
 30
0.0
 10
-22.81416047973582
 20
18.50000000000001
 30
0.0
 10
-23.14916597943477
 20
18.56283120254688
 30
0.0
 10
-23.76529705102511
 20
18.81820448659268
 30
0.0
 10
-24.04643702190561
 20
19.01073967572941
 30
0.0
 10
-24.47963731989384
 20
19.44425939870004
 30
0.0
 10
-24.66436160219554
 20
19.70917543665846
 30
0.0
 10
-24.79128784747793
 20
20.0
 30
0.0
  0
ARC
  5
F9F
330
F68
100
AcDbEntity
  8
0
100
AcDbCircle
 10
-22.50000000000001
 20
21.00000000000001
 30
0.0
 40
2.5
100
AcDbArc
 50
336.421821521798
 51
203.578178478202
  0
SPLINE
  5
FA0
330
F68
100
AcDbEntity
  8
0
100
AcDbSpline
210
0.0
220
0.0
230
1.0
 70
     8
 71
     3
 72
    19
 73
    15
 74
     0
 42
0.000000001
 43
0.0000000001
 40
-0.278174996488512
 40
-0.278174996488512
 40
-0.278174996488512
 40
-0.278174996488512
 40
-0.1884962878414842
 40
-0.1884962878414842
 40
-0.0942481439207421
 40
-0.0942481439207421
 40
0.0
 40
0.0
 40
0.0
 40
0.0942481439207422
 40
0.0942481439207422
 40
0.1884962878414843
 40
0.1884962878414843
 40
0.2781749964885116
 40
0.2781749964885116
 40
0.2781749964885116
 40
0.2781749964885116
 10
-5.208712152522095
 20
20.0
 30
0.0
 10
-5.335638397804483
 20
19.70917543665847
 30
0.0
 10
-5.520362680106174
 20
19.44425939870004
 30
0.0
 10
-5.953562978094407
 20
19.01073967572942
 30
0.0
 10
-6.23470294897491
 20
18.81820448659269
 30
0.0
 10
-6.850834020565251
 20
18.5628312025469
 30
0.0
 10
-7.1858395202642
 20
18.50000000000002
 30
0.0
 10
-7.500000000000007
 20
18.50000000000002
 30
0.0
 10
-7.814160479735815
 20
18.50000000000002
 30
0.0
 10
-8.149165979434764
 20
18.5628312025469
 30
0.0
 10
-8.765297051025104
 20
18.81820448659269
 30
0.0
 10
-9.046437021905607
 20
19.01073967572942
 30
0.0
 10
-9.479637319893841
 20
19.44425939870004
 30
0.0
 10
-9.66436160219553
 20
19.70917543665846
 30
0.0
 10
-9.791287847477919
 20
20.0
 30
0.0
  0
ARC
  5
FA1
330
F68
100
AcDbEntity
  8
0
100
AcDbCircle
 10
-7.500000000000007
 20
21.00000000000002
 30
0.0
 40
2.5
100
AcDbArc
 50
336.4218215217977
 51
203.5781784782022
  0
CIRCLE
  5
FA2
330
F68
100
AcDbEntity
  8
0
100
AcDbCircle
 10
-25.00000000000001
 20
51.00000000000001
 30
0.0
 40
2.5
  0
ARC
  5
FA3
330
F68
100
AcDbEntity
  8
0
100
AcDbCircle
 10
7.499999999999992
 20
21.00000000000002
 30
0.0
 40
2.5
100
AcDbArc
 50
336.4218215217977
 51
203.5781784782022
  0
ARC
  5
FA4
330
F68
100
AcDbEntity
  8
0
100
AcDbCircle
 10
22.5
 20
21.00000000000001
 30
0.0
 40
2.5
100
AcDbArc
 50
336.421821521798
 51
203.578178478202
  0
CIRCLE
  5
FA5
330
F68
100
AcDbEntity
  8
0
100
AcDbCircle
 10
30.0
 20
91.00000000000001
 30
0.0
 40
2.5
  0
CIRCLE
  5
FA6
330
F68
100
AcDbEntity
  8
0
100
AcDbCircle
 10
17.49999999999999
 20
66.00000000000001
 30
0.0
 40
2.5
  0
CIRCLE
  5
FA7
330
F68
100
AcDbEntity
  8
0
100
AcDbCircle
 10
14.99999999999999
 20
36.00000000000001
 30
0.0
 40
2.5
  0
CIRCLE
  5
FA8
330
F68
100
AcDbEntity
  8
0
100
AcDbCircle
 10
-0.0000000000000072
 20
36.00000000000002
 30
0.0
 40
2.5
  0
CIRCLE
  5
FA9
330
F68
100
AcDbEntity
  8
0
100
AcDbCircle
 10
25.0
 20
51.00000000000001
 30
0.0
 40
2.5
  0
CIRCLE
  5
FAA
330
F68
100
AcDbEntity
  8
0
100
AcDbCircle
 10
-0.0000000000000066
 20
86.00000000000001
 30
0.0
 40
2.5
  0
SPLINE
  5
FAB
330
F68
100
AcDbEntity
  8
0
100
AcDbSpline
210
0.0
220
0.0
230
1.0
 70
     8
 71
     3
 72
    18
 73
    14
 74
     0
 42
0.000000001
 43
0.0000000001
 40
0.4765284093885223
 40
0.4765284093885223
 40
0.4765284093885223
 40
0.4765284093885223
 40
0.5662071180355502
 40
0.5662071180355502
 40
0.6604552619562922
 40
0.6604552619562922
 40
0.7547034058770345
 40
0.7547034058770345
 40
0.8489515497977764
 40
0.8489515497977764
 40
0.9431996937185186
 40
0.9431996937185186
 40
1.032878402365546
 40
1.032878402365546
 40
1.032878402365546
 40
1.032878402365546
 10
9.791287847477903
 20
20.0
 30
0.0
 10
9.664361602195516
 20
19.70917543665847
 30
0.0
 10
9.479637319893825
 20
19.44425939870004
 30
0.0
 10
9.046437021905592
 20
19.01073967572942
 30
0.0
 10
8.76529705102509
 20
18.81820448659269
 30
0.0
 10
8.149165979434748
 20
18.5628312025469
 30
0.0
 10
7.814160479735798
 20
18.50000000000002
 30
0.0
 10
7.185839520264185
 20
18.50000000000002
 30
0.0
 10
6.850834020565239
 20
18.5628312025469
 30
0.0
 10
6.2347029489749
 20
18.81820448659269
 30
0.0
 10
5.953562978094394
 20
19.01073967572942
 30
0.0
 10
5.52036268010616
 20
19.44425939870004
 30
0.0
 10
5.335638397804468
 20
19.70917543665847
 30
0.0
 10
5.20871215252208
 20
20.0
 30
0.0
  0
SPLINE
  5
FAC
330
F68
100
AcDbEntity
  8
0
100
AcDbSpline
210
0.0
220
0.0
230
1.0
 70
     8
 71
     3
 72
    18
 73
    14
 74
     0
 42
0.000000001
 43
0.0000000001
 40
0.4765284093885209
 40
0.4765284093885209
 40
0.4765284093885209
 40
0.4765284093885209
 40
0.5662071180355503
 40
0.5662071180355503
 40
0.6604552619562922
 40
0.6604552619562922
 40
0.7547034058770344
 40
0.7547034058770344
 40
0.8489515497977764
 40
0.8489515497977764
 40
0.9431996937185186
 40
0.9431996937185186
 40
1.032878402365548
 40
1.032878402365548
 40
1.032878402365548
 40
1.032878402365548
 10
24.79128784747791
 20
20.0
 30
0.0
 10
24.66436160219552
 20
19.70917543665846
 30
0.0
 10
24.47963731989383
 20
19.44425939870003
 30
0.0
 10
24.04643702190559
 20
19.0107396757294
 30
0.0
 10
23.76529705102508
 20
18.81820448659267
 30
0.0
 10
23.14916597943474
 20
18.56283120254688
 30
0.0
 10
22.8141604797358
 20
18.50000000000001
 30
0.0
 10
22.18583952026418
 20
18.50000000000001
 30
0.0
 10
21.85083402056524
 20
18.56283120254689
 30
0.0
 10
21.2347029489749
 20
18.81820448659268
 30
0.0
 10
20.95356297809439
 20
19.01073967572941
 30
0.0
 10
20.52036268010615
 20
19.44425939870004
 30
0.0
 10
20.33563839780446
 20
19.70917543665846
 30
0.0
 10
20.20871215252207
 20
20.0
 30
0.0
  0
CIRCLE
  5
FAD
330
F68
100
AcDbEntity
  8
0
100
AcDbCircle
 10
-0.0000000000000068
 20
71.00000000000001
 30
0.0
 40
6.0
  0
LINE
  5
FAE
330
F68
100
AcDbEntity
  8
0
100
AcDbLine
 10
38.66254976522498
 20
11.07797661588937
 30
0.0
 11
41.66479642214842
 21
5.08992992317672
 31
0.0
  0
LINE
  5
FAF
330
F68
100
AcDbEntity
  8
0
100
AcDbLine
 10
38.6625497652291
 20
20.0
 30
0.0
 11
41.66479642218156
 21
76.97245860218242
 31
0.0
  0
LINE
  5
FB0
330
F68
100
AcDbEntity
  8
0
100
AcDbLine
 10
-38.66254976522911
 20
20.0
 30
0.0
 11
-41.66479642218158
 21
76.97245860218242
 31
0.0
  0
LINE
  5
FB1
330
F68
100
AcDbEntity
  8
0
100
AcDbLine
 10
-38.66254976523323
 20
11.07797661592502
 30
0.0
 11
-41.66479642221474
 21
5.089929923215144
 31
0.0
  0
ENDBLK
  5
F6A
330
F68
100
AcDbEntity
  8
0
100
AcDbBlockEnd
  0
BLOCK
  5
FB3
330
FB2
100
AcDbEntity
  8
0
100
AcDbBlockBegin
  2
ABR100-ISO
 70
     0
 10
0.0
 20
0.0
 30
0.0
  3
ABR100-ISO
  1

  0
SPLINE
  5
FB5
330
FB2
100
AcDbEntity
  8
0
100
AcDbSpline
210
0.0
220
0.0
230
1.0
 70
     8
 71
     3
 72
    18
 73
    14
 74
     0
 42
0.000000001
 43
0.0000000001
 40
0.4768244973171896
 40
0.4768244973171896
 40
0.4768244973171896
 40
0.4768244973171896
 40
0.5664884413608245
 40
0.5664884413608245
 40
0.6607545772369912
 40
0.6607545772369912
 40
0.7550207131131579
 40
0.7550207131131579
 40
0.8492868489893245
 40
0.8492868489893245
 40
0.9435529848654912
 40
0.9435529848654912
 40
1.033216928909126
 40
1.033216928909126
 40
1.033216928909126
 40
1.033216928909126
 10
4.740240322119402
 20
-17.4337174827815
 30
0.0
 10
5.03556449518431
 20
-17.36682218877394
 30
0.0
 10
5.353437100993603
 20
-17.32809490425058
 30
0.0
 10
5.966258459207383
 20
-17.31283770596679
 30
0.0
 10
6.301223185248572
 20
-17.33875012871814
 30
0.0
 10
6.917539786785127
 20
-17.47081139320263
 30
0.0
 10
7.198898255453549
 20
-17.57735949022334
 30
0.0
 10
7.643273081548818
 20
-17.83391941569053
 30
0.0
 10
7.835742516453017
 20
-18.00093598634703
 30
0.0
 10
8.090827372520399
 20
-18.37197858798241
 30
0.0
 10
8.153461395308916
 20
-18.57561990989735
 30
0.0
 10
8.153182496403017
 20
-18.94452866195262
 30
0.0
 10
8.096476719331677
 20
-19.13404068535124
 30
0.0
 10
7.980610671323327
 20
-19.30454617616847
 30
0.0
  0
SPLINE
  5
FB6
330
FB2
100
AcDbEntity
  8
0
100
AcDbSpline
210
0.0
220
0.0
230
1.0
 70
     8
 71
     3
 72
    18
 73
    14
 74
     0
 42
0.000000001
 43
0.0000000001
 40
0.4768244973171913
 40
0.4768244973171913
 40
0.4768244973171913
 40
0.4768244973171913
 40
0.5664884413608247
 40
0.5664884413608247
 40
0.6607545772369914
 40
0.6607545772369914
 40
0.7550207131131581
 40
0.7550207131131581
 40
0.8492868489893247
 40
0.8492868489893247
 40
0.9435529848654912
 40
0.9435529848654912
 40
1.033216928909124
 40
1.033216928909124
 40
1.033216928909124
 40
1.033216928909124
 10
15.34684203991762
 20
-23.55744183973945
 30
0.0
 10
15.64216621298252
 20
-23.49054654573189
 30
0.0
 10
15.96003881879181
 20
-23.45181926120853
 30
0.0
 10
16.57286017700559
 20
-23.43656206292474
 30
0.0
 10
16.90782490304677
 20
-23.46247448567609
 30
0.0
 10
17.52414150458333
 20
-23.59453575016058
 30
0.0
 10
17.80549997325175
 20
-23.70108384718129
 30
0.0
 10
18.24987479934702
 20
-23.95764377264848
 30
0.0
 10
18.44234423425122
 20
-24.12466034330499
 30
0.0
 10
18.6974290903186
 20
-24.49570294494036
 30
0.0
 10
18.76006311310711
 20
-24.6993442668553
 30
0.0
 10
18.75978421420121
 20
-25.06825301891056
 30
0.0
 10
18.70307843712989
 20
-25.25776504230919
 30
0.0
 10
18.58721238912154
 20
-25.42827053312642
 30
0.0
  0
SPLINE
  5
FB7
330
FB2
100
AcDbEntity
  8
0
100
AcDbSpline
210
0.0
220
0.0
230
1.0
 70
     8
 71
     3
 72
    18
 73
    14
 74
     0
 42
0.000000001
 43
0.0000000001
 40
0.4768244973171911
 40
0.4768244973171911
 40
0.4768244973171911
 40
0.4768244973171911
 40
0.5664884413608249
 40
0.5664884413608249
 40
0.6607545772369916
 40
0.6607545772369916
 40
0.7550207131131584
 40
0.7550207131131584
 40
0.849286848989325
 40
0.849286848989325
 40
0.9435529848654917
 40
0.9435529848654917
 40
1.033216928909125
 40
1.033216928909125
 40
1.033216928909125
 40
1.033216928909125
 10
25.95344375771583
 20
-29.68116619669739
 30
0.0
 10
26.24876793078074
 20
-29.61427090268984
 30
0.0
 10
26.56664053659002
 20
-29.57554361816647
 30
0.0
 10
27.1794618948038
 20
-29.56028641988269
 30
0.0
 10
27.51442662084499
 20
-29.58619884263404
 30
0.0
 10
28.13074322238155
 20
-29.71826010711853
 30
0.0
 10
28.41210169104997
 20
-29.82480820413923
 30
0.0
 10
28.85647651714524
 20
-30.08136812960643
 30
0.0
 10
29.04894595204943
 20
-30.24838470026293
 30
0.0
 10
29.30403080811681
 20
-30.6194273018983
 30
0.0
 10
29.36666483090533
 20
-30.82306862381324
 30
0.0
 10
29.36638593199943
 20
-31.1919773758685
 30
0.0
 10
29.3096801549281
 20
-31.38148939926713
 30
0.0
 10
29.19381410691975
 20
-31.55199489008436
 30
0.0
  0
SPLINE
  5
FB8
330
FB2
100
AcDbEntity
  8
0
100
AcDbSpline
210
0.0
220
0.0
230
1.0
 70
     8
 71
     3
 72
    18
 73
    14
 74
     0
 42
0.000000001
 43
0.0000000001
 40
0.4768244973171895
 40
0.4768244973171895
 40
0.4768244973171895
 40
0.4768244973171895
 40
0.5664884413608242
 40
0.5664884413608242
 40
0.6607545772369907
 40
0.6607545772369907
 40
0.7550207131131574
 40
0.7550207131131574
 40
0.8492296915981738
 40
0.8492296915981738
 40
0.9434386700831902
 40
0.9434386700831902
 40
1.033213200495121
 40
1.033213200495121
 40
1.033213200495121
 40
1.033213200495121
 10
36.56004547551404
 20
-35.80489055365533
 30
0.0
 10
36.85536964857895
 20
-35.73799525964778
 30
0.0
 10
37.17324225438824
 20
-35.69926797512441
 30
0.0
 10
37.78606361260202
 20
-35.68401077684062
 30
0.0
 10
38.12102833864319
 20
-35.70992319959197
 30
0.0
 10
38.73734494017976
 20
-35.84198446407646
 30
0.0
 10
39.01870340884818
 20
-35.94853256109717
 30
0.0
 10
39.46294351368053
 20
-36.20501470520695
 30
0.0
 10
39.65533204349049
 20
-36.37191709986091
 30
0.0
 10
39.91041293949109
 20
-36.74271076968927
 30
0.0
 10
39.97312386892945
 20
-36.94621817245798
 30
0.0
 10
39.97312386892945
 20
-37.3152429213374
 30
0.0
 10
39.9164202582866
 20
-37.50501011160024
 30
0.0
 10
39.80041582471797
 20
-37.6757192470423
 30
0.0
  0
ELLIPSE
  5
FB9
330
FB2
100
AcDbEntity
  8
0
100
AcDbEllipse
 10
37.47312386892945
 20
-37.14855319081268
 30
0.0
 11
2.5
 21
0.0000000000000002
 31
0.0
210
0.0
220
0.0
230
1.0
 40
0.5773502691896258
 41
1.944677644124855
 42
5.909303989849628
  0
ELLIPSE
  5
FBA
330
FB2
100
AcDbEntity
  8
0
100
AcDbEllipse
 10
26.86652215113124
 20
-31.02482883385474
 30
0.0
 11
2.499999999999999
 21
0.0000000000000001
 31
0.0
210
0.0
220
0.0
230
1.0
 40
0.5773502691896259
 41
1.94467764412485
 42
5.909303989849636
  0
ELLIPSE
  5
FBB
330
FB2
100
AcDbEntity
  8
0
100
AcDbEllipse
 10
16.25992043333302
 20
-24.9011044768968
 30
0.0
 11
2.499999999999999
 21
0.0000000000000001
 31
0.0
210
0.0
220
0.0
230
1.0
 40
0.5773502691896259
 41
1.944677644124846
 42
5.909303989849632
  0
ELLIPSE
  5
FBC
330
FB2
100
AcDbEntity
  8
0
100
AcDbEllipse
 10
5.653318715534814
 20
-18.77738011993885
 30
0.0
 11
2.5
 21
0.0000000000000002
 31
0.0
210
0.0
220
0.0
230
1.0
 40
0.5773502691896258
 41
1.944677644124854
 42
5.909303989849627
  0
ELLIPSE
  5
FBD
330
FB2
100
AcDbEntity
  8
0
100
AcDbEllipse
 10
-49.14745682642262
 20
-44.29289827393029
 30
0.0
 11
-2.499999999999999
 21
0.0000000000000001
 31
0.0
210
0.0
220
0.0
230
1.0
 40
0.5773502691896259
 41
0.0
 42
6.283185307179586
  0
ELLIPSE
  5
FBE
330
FB2
100
AcDbEntity
  8
0
100
AcDbEllipse
 10
-22.63095253192709
 20
-39.18979464313201
 30
0.0
 11
-2.499999999999999
 21
0.0000000000000001
 31
0.0
210
0.0
220
0.0
230
1.0
 40
0.5773502691896259
 41
0.0
 42
6.283185307179586
  0
ELLIPSE
  5
FBF
330
FB2
100
AcDbEntity
  8
0
100
AcDbEllipse
 10
0.3500178566357004
 20
-27.96296665537577
 30
0.0
 11
-2.499999999999999
 21
0.0000000000000001
 31
0.0
210
0.0
220
0.0
230
1.0
 40
0.5773502691896259
 41
0.0
 42
6.283185307179586
  0
ELLIPSE
  5
FC0
330
FB2
100
AcDbEntity
  8
0
100
AcDbEllipse
 10
-17.32765167302798
 20
-30.00420810769508
 30
0.0
 11
-2.499999999999999
 21
0.0000000000000001
 31
0.0
210
0.0
220
0.0
230
1.0
 40
0.5773502691896259
 41
0.0
 42
6.283185307179586
  0
ELLIPSE
  5
FC1
330
FB2
100
AcDbEntity
  8
0
100
AcDbEllipse
 10
-24.39871948489346
 20
-54.49910553552687
 30
0.0
 11
-2.499999999999999
 21
0.0000000000000001
 31
0.0
210
0.0
220
0.0
230
1.0
 40
0.5773502691896259
 41
0.0
 42
6.283185307179586
  0
ELLIPSE
  5
FC2
330
FB2
100
AcDbEntity
  8
0
100
AcDbEllipse
 10
18.02768738629939
 20
-50.41662263088824
 30
0.0
 11
-2.499999999999999
 21
0.0000000000000001
 31
0.0
210
0.0
220
0.0
230
1.0
 40
0.5773502691896259
 41
0.0
 42
6.283185307179586
  0
ELLIPSE
  5
FC3
330
FB2
100
AcDbEntity
  8
0
100
AcDbEllipse
 10
10.95661957443391
 20
-34.08669101233372
 30
0.0
 11
-2.499999999999999
 21
0.0000000000000001
 31
0.0
210
0.0
220
0.0
230
1.0
 40
0.5773502691896259
 41
0.0
 42
6.283185307179586
  0
ELLIPSE
  5
FC4
330
FB2
100
AcDbEntity
  8
0
100
AcDbEllipse
 10
21.56322129223213
 20
-40.21041536929167
 30
0.0
 11
-2.499999999999999
 21
0.0000000000000001
 31
0.0
210
0.0
220
0.0
230
1.0
 40
0.5773502691896259
 41
0.0
 42
6.283185307179586
  0
ELLIPSE
  5
FC5
330
FB2
100
AcDbEntity
  8
0
100
AcDbEllipse
 10
2.117784809602079
 20
-53.4784848093672
 30
0.0
 11
-2.499999999999999
 21
0.0000000000000001
 31
0.0
210
0.0
220
0.0
230
1.0
 40
0.5773502691896259
 41
0.0
 42
6.283185307179586
  0
ELLIPSE
  5
FC6
330
FB2
100
AcDbEntity
  8
0
100
AcDbEllipse
 10
-6.721049955229769
 20
-68.78779570176205
 30
0.0
 11
-2.499999999999999
 21
0.0000000000000001
 31
0.0
210
0.0
220
0.0
230
1.0
 40
0.5773502691896259
 41
0.0
 42
6.283185307179586
  0
ELLIPSE
  5
FC7
330
FB2
100
AcDbEntity
  8
0
100
AcDbEllipse
 10
-49.14745682642262
 20
-45.92589143578575
 30
0.0
 11
-2.5
 21
-0.0000000000001492
 31
0.0
210
0.0
220
0.0
230
1.0
 40
0.5773502691896258
 41
3.742856870268582
 42
5.68192109050012
  0
ELLIPSE
  5
FC8
330
FB2
100
AcDbEntity
  8
0
100
AcDbEllipse
 10
-22.63095253192709
 20
-40.82278780498746
 30
0.0
 11
-2.499999999999999
 21
-0.0000000000001495
 31
0.0
210
0.0
220
0.0
230
1.0
 40
0.5773502691896259
 41
3.742856870268582
 42
5.681921090500114
  0
ELLIPSE
  5
FC9
330
FB2
100
AcDbEntity
  8
0
100
AcDbEllipse
 10
0.3500178566357004
 20
-29.59595981723122
 30
0.0
 11
-2.499999999999999
 21
-0.0000000000001495
 31
0.0
210
0.0
220
0.0
230
1.0
 40
0.5773502691896259
 41
3.742856870268582
 42
5.681921090500114
  0
SPLINE
  5
FCA
330
FB2
100
AcDbEntity
  8
0
100
AcDbSpline
210
0.0
220
0.0
230
1.0
 70
     8
 71
     3
 72
    15
 73
    11
 74
     0
 42
0.000000001
 43
0.0000000001
 40
-0.0491347785399887
 40
-0.0491347785399887
 40
-0.0491347785399887
 40
-0.0491347785399887
 40
0.0
 40
0.0
 40
0.0
 40
0.0942481439207421
 40
0.0942481439207421
 40
0.1884962878414842
 40
0.1884962878414842
 40
0.2781749964885142
 40
0.2781749964885142
 40
0.2781749964885142
 40
0.2781749964885142
 10
7.739323300874132
 20
-19.5727151603543
 30
0.0
 10
7.644640160194748
 20
-19.48788997640145
 30
0.0
 10
7.536897452160271
 20
-19.41062381898334
 30
0.0
 10
7.421085668501183
 20
-19.34375985451244
 30
0.0
 10
7.198940662899175
 20
-19.21550437572899
 30
0.0
 10
6.917627632936254
 20
-19.10850200995932
 30
0.0
 10
6.301380993232332
 20
-18.97490471411499
 30
0.0
 10
5.966442075504527
 20
-18.94795233682992
 30
0.0
 10
5.353578471294366
 20
-18.9616694292278
 30
0.0
 10
5.035634751743547
 20
-18.9997994364794
 30
0.0
 10
4.740240322119402
 20
-19.06671064463695
 30
0.0
  0
ELLIPSE
  5
FCB
330
FB2
100
AcDbEntity
  8
0
100
AcDbEllipse
 10
5.653318715534814
 20
-20.41037328179431
 30
0.0
 11
-2.499999999999999
 21
-0.0000000000000002
 31
0.0
210
0.0
220
0.0
230
1.0
 40
0.5773502691896259
 41
5.086270297714646
 42
5.681921090500454
  0
SPLINE
  5
FCC
330
FB2
100
AcDbEntity
  8
0
100
AcDbSpline
210
0.0
220
0.0
230
1.0
 70
     8
 71
     3
 72
    15
 73
    11
 74
     0
 42
0.000000001
 43
0.0000000001
 40
-0.0491347785399891
 40
-0.0491347785399891
 40
-0.0491347785399891
 40
-0.0491347785399891
 40
0.0
 40
0.0
 40
0.0
 40
0.0942481439207422
 40
0.0942481439207422
 40
0.1884962878414843
 40
0.1884962878414843
 40
0.2781749964885116
 40
0.2781749964885116
 40
0.2781749964885116
 40
0.2781749964885116
 10
18.34592501867233
 20
-25.69643951731226
 30
0.0
 10
18.25124187799295
 20
-25.6116143333594
 30
0.0
 10
18.14349916995847
 20
-25.5343481759413
 30
0.0
 10
18.02768738629939
 20
-25.46748421147039
 30
0.0
 10
17.80554238069738
 20
-25.33922873268694
 30
0.0
 10
17.52422935073446
 20
-25.23222636691727
 30
0.0
 10
16.90798271103053
 20
-25.09862907107295
 30
0.0
 10
16.57304379330273
 20
-25.07167669378788
 30
0.0
 10
15.96018018909257
 20
-25.08539378618575
 30
0.0
 10
15.64223646954175
 20
-25.12352379343735
 30
0.0
 10
15.34684203991762
 20
-25.1904350015949
 30
0.0
  0
ELLIPSE
  5
FCD
330
FB2
100
AcDbEntity
  8
0
100
AcDbEllipse
 10
16.25992043333302
 20
-26.53409763875226
 30
0.0
 11
-2.499999999999999
 21
-0.0000000000000003
 31
0.0
210
0.0
220
0.0
230
1.0
 40
0.5773502691896259
 41
5.086270297714641
 42
5.681921090500456
  0
ELLIPSE
  5
FCE
330
FB2
100
AcDbEntity
  8
0
100
AcDbEllipse
 10
-17.32765167302798
 20
-31.63720126955054
 30
0.0
 11
-2.5
 21
-0.0000000000001492
 31
0.0
210
0.0
220
0.0
230
1.0
 40
0.5773502691896258
 41
3.742856870268582
 42
5.681921090500114
  0
ELLIPSE
  5
FCF
330
FB2
100
AcDbEntity
  8
0
100
AcDbEllipse
 10
26.86652215113124
 20
-32.6578219957102
 30
0.0
 11
-2.499999999999999
 21
-0.0000000000000003
 31
0.0
210
0.0
220
0.0
230
1.0
 40
0.5773502691896259
 41
5.086270297714641
 42
5.681921090500455
  0
ELLIPSE
  5
FD0
330
FB2
100
AcDbEntity
  8
0
100
AcDbEllipse
 10
37.47312386892945
 20
-38.78154635266815
 30
0.0
 11
-2.499999999999999
 21
-0.0000000000000002
 31
0.0
210
0.0
220
0.0
230
1.0
 40
0.5773502691896259
 41
5.086270297714647
 42
5.681921090500455
  0
ELLIPSE
  5
FD1
330
FB2
100
AcDbEntity
  8
0
100
AcDbEllipse
 10
-6.721049955229769
 20
-70.42078886361752
 30
0.0
 11
-2.5
 21
-0.0000000000001492
 31
0.0
210
0.0
220
0.0
230
1.0
 40
0.5773502691896258
 41
3.742856870268582
 42
5.681921090500122
  0
ELLIPSE
  5
FD2
330
FB2
100
AcDbEntity
  8
0
100
AcDbEllipse
 10
2.117784809602079
 20
-55.11147797122266
 30
0.0
 11
-2.499999999999999
 21
-0.0000000000001495
 31
0.0
210
0.0
220
0.0
230
1.0
 40
0.5773502691896259
 41
3.742856870268582
 42
5.681921090500113
  0
ELLIPSE
  5
FD3
330
FB2
100
AcDbEntity
  8
0
100
AcDbEllipse
 10
21.56322129223213
 20
-41.84340853114711
 30
0.0
 11
-2.499999999999999
 21
-0.0000000000001495
 31
0.0
210
0.0
220
0.0
230
1.0
 40
0.5773502691896259
 41
3.742856870268582
 42
5.681921090500114
  0
ELLIPSE
  5
FD4
330
FB2
100
AcDbEntity
  8
0
100
AcDbEllipse
 10
10.95661957443391
 20
-35.71968417418917
 30
0.0
 11
-2.499999999999999
 21
-0.0000000000001495
 31
0.0
210
0.0
220
0.0
230
1.0
 40
0.5773502691896259
 41
3.742856870268582
 42
5.681921090500114
  0
ELLIPSE
  5
FD5
330
FB2
100
AcDbEntity
  8
0
100
AcDbEllipse
 10
18.02768738629939
 20
-52.04961579274368
 30
0.0
 11
-2.5
 21
-0.0000000000001492
 31
0.0
210
0.0
220
0.0
230
1.0
 40
0.5773502691896258
 41
3.742856870268582
 42
5.681921090500114
  0
ELLIPSE
  5
FD6
330
FB2
100
AcDbEntity
  8
0
100
AcDbEllipse
 10
-24.39871948489346
 20
-56.13209869738231
 30
0.0
 11
-2.499999999999999
 21
-0.0000000000001496
 31
0.0
210
0.0
220
0.0
230
1.0
 40
0.5773502691896259
 41
3.74285687026858
 42
5.68192109050012
  0
SPLINE
  5
FD7
330
FB2
100
AcDbEntity
  8
0
100
AcDbSpline
210
0.0
220
0.0
230
1.0
 70
     8
 71
     3
 72
    14
 73
    10
 74
     0
 42
0.000000001
 43
0.0000000001
 40
0.7055686273370454
 40
0.7055686273370454
 40
0.7055686273370454
 40
0.7055686273370454
 40
0.7547034058770345
 40
0.7547034058770345
 40
0.8489515497977764
 40
0.8489515497977764
 40
0.9431996937185186
 40
0.9431996937185186
 40
1.032878402365546
 40
1.032878402365546
 40
1.032878402365546
 40
1.032878402365546
 10
28.95252673647055
 20
-31.8201638742702
 30
0.0
 10
28.85784359579116
 20
-31.73533869031734
 30
0.0
 10
28.75010088775668
 20
-31.65807253289924
 30
0.0
 10
28.41214409849559
 20
-31.46295308964488
 30
0.0
 10
28.13083106853267
 20
-31.35595072387522
 30
0.0
 10
27.51458442882875
 20
-31.22235342803089
 30
0.0
 10
27.17964551110095
 20
-31.19540105074582
 30
0.0
 10
26.56678190689078
 20
-31.2091181431437
 30
0.0
 10
26.24883818733997
 20
-31.2472481503953
 30
0.0
 10
25.95344375771583
 20
-31.31415935855284
 30
0.0
  0
SPLINE
  5
FD8
330
FB2
100
AcDbEntity
  8
0
100
AcDbSpline
210
0.0
220
0.0
230
1.0
 70
     8
 71
     3
 72
    14
 73
    10
 74
     0
 42
0.000000001
 43
0.0000000001
 40
0.7055686273370452
 40
0.7055686273370452
 40
0.7055686273370452
 40
0.7055686273370452
 40
0.7547034058770344
 40
0.7547034058770344
 40
0.8489515497977764
 40
0.8489515497977764
 40
0.9431996937185186
 40
0.9431996937185186
 40
1.032878402365548
 40
1.032878402365548
 40
1.032878402365548
 40
1.032878402365548
 10
39.55912845426878
 20
-37.94388823122814
 30
0.0
 10
39.46444531358939
 20
-37.85906304727529
 30
0.0
 10
39.35670260555491
 20
-37.78179688985718
 30
0.0
 10
39.01874581629382
 20
-37.58667744660282
 30
0.0
 10
38.73743278633089
 20
-37.47967508083316
 30
0.0
 10
38.12118614662697
 20
-37.34607778498883
 30
0.0
 10
37.78624722889917
 20
-37.31912540770375
 30
0.0
 10
37.173383624689
 20
-37.33284250010164
 30
0.0
 10
36.85543990513818
 20
-37.37097250735324
 30
0.0
 10
36.56004547551404
 20
-37.43788371551078
 30
0.0
  0
LINE
  5
FD9
330
FB2
100
AcDbEntity
  8
0
100
AcDbLine
 10
15.34684203991762
 20
-23.55744183973945
 30
0.0
 11
7.980610671323331
 21
-19.30454617616847
 31
0.0
  0
LINE
  5
FDA
330
FB2
100
AcDbEntity
  8
0
100
AcDbLine
 10
25.95344375771583
 20
-29.6811661966974
 30
0.0
 11
18.58721238912154
 21
-25.42827053312642
 31
0.0
  0
LINE
  5
FDB
330
FB2
100
AcDbEntity
  8
0
100
AcDbLine
 10
36.56004547551404
 20
-35.80489055365533
 30
0.0
 11
29.19381410691975
 21
-31.55199489008436
 31
0.0
  0
LINE
  5
FDC
330
FB2
100
AcDbEntity
  8
0
100
AcDbLine
 10
42.42097588541382
 20
-39.18870030351264
 30
0.0
 11
39.80041582471797
 21
-37.6757192470423
 31
0.0
  0
LINE
  5
FDD
330
FB2
100
AcDbEntity
  8
0
100
AcDbLine
 10
55.14889794681086
 20
-17.14329261844109
 30
0.0
 11
13.54452724894811
 21
6.877002003390638
 31
0.0
  0
ELLIPSE
  5
FDE
330
FB2
100
AcDbEntity
  8
0
100
AcDbEllipse
 10
0.8166051875961333
 20
-0.4714672249304331
 30
0.0
 11
-8.99999999998848
 21
-15.58845726812654
 31
0.0
210
0.0
220
0.0
230
0.9999999999999998
 40
0.5773502691896259
 41
1.57079632679266
 42
2.356194490189958
  0
ELLIPSE
  5
FDF
330
FB2
100
AcDbEntity
  8
0
100
AcDbEllipse
 10
0.8166051875817936
 20
-0.4714672249552754
 30
0.0
 11
8.999999999999063
 21
15.58845726812043
 31
0.0
210
0.0
220
0.0
230
1.0
 40
0.5773502691896259
 41
3.926990816986998
 42
4.712388980384298
  0
LINE
  5
FE0
330
FB2
100
AcDbEntity
  8
0
100
AcDbLine
 10
4.740240322119402
 20
-17.4337174827815
 30
0.0
 11
0.8166051875817936
 21
-15.16840568165434
 31
0.0
  0
LINE
  5
FE1
330
FB2
100
AcDbEntity
  8
0
100
AcDbLine
 10
55.67575322120433
 20
-32.14441110968075
 30
0.0
 11
56.11860757360062
 21
-32.40009318924858
 31
0.0
  0
SPLINE
  5
FE2
330
FB2
100
AcDbEntity
  8
0
100
AcDbSpline
210
0.0
220
0.0
230
1.0
 70
     8
 71
     3
 72
    10
 73
     6
 74
     0
 42
0.000000001
 43
0.0000000001
 40
0.0
 40
0.0
 40
0.0
 40
0.0
 40
0.316955678396775
 40
0.316955678396775
 40
0.3912780802691169
 40
0.3912780802691169
 40
0.3912780802691169
 40
0.3912780802691169
 10
58.57877288280447
 20
-22.37562230435918
 30
0.0
 10
59.1126489439981
 20
-21.8492483572842
 30
0.0
 10
59.46008370965151
 20
-21.26694211836189
 30
0.0
 10
59.63476035132183
 20
-20.52068132550838
 30
0.0
 10
59.65646314461928
 20
-20.37836716977007
 30
0.0
 10
59.66674862000525
 20
-20.23594633288753
 30
0.0
  0
ELLIPSE
  5
FE3
330
FB2
100
AcDbEntity
  8
0
100
AcDbEllipse
 10
48.66724378244676
 20
-28.09804629851198
 30
0.0
 11
-7.008509438784993
 21
-12.13909443332236
 31
0.0
210
0.0
220
0.0
230
0.9999999999999998
 40
0.5773502691896259
 41
1.570796326789121
 42
2.356194490189958
  0
LINE
  5
FE4
330
FB2
100
AcDbEntity
  8
0
100
AcDbLine
 10
58.57877288280447
 20
-22.37562230435918
 30
0.0
 11
55.9177024271812
 21
-24.99929896077144
 31
0.0
  0
LINE
  5
FE5
330
FB2
100
AcDbEntity
  8
0
100
AcDbLine
 10
55.9177024271812
 20
-24.99929896077144
 30
0.0
 11
54.17974461961313
 21
-24.42086635641746
 31
0.0
  0
LINE
  5
FE6
330
FB2
100
AcDbEntity
  8
0
100
AcDbLine
 10
9.816605187581792
 20
-5.667619647661908
 30
0.0
 11
4.514844486962794
 21
-2.606646679980557
 31
0.0
  0
SPLINE
  5
FE7
330
FB2
100
AcDbEntity
  8
0
100
AcDbSpline
210
0.0
220
0.0
230
1.0
 70
     8
 71
     3
 72
    14
 73
    10
 74
     0
 42
0.000000001
 43
0.0000000001
 40
0.0
 40
0.0
 40
0.0
 40
0.0
 40
0.199453978593692
 40
0.199453978593692
 40
0.398206262607084
 40
0.398206262607084
 40
0.533079435304611
 40
0.533079435304611
 40
0.6608611733068291
 40
0.6608611733068291
 40
0.6608611733068291
 40
0.6608611733068291
 10
13.54452724894811
 20
6.877002003390639
 30
0.0
 10
13.07440971295378
 20
7.148424489347231
 30
0.0
 10
12.51562796726747
 20
7.363410080608283
 30
0.0
 10
11.28797800769868
 20
7.654781406367225
 30
0.0
 10
10.63137791126385
 20
7.728832337890647
 30
0.0
 10
9.519372536267972
 20
7.725718988880689
 30
0.0
 10
9.07217320972213
 20
7.689518146014879
 30
0.0
 10
8.229400910167337
 20
7.552711594348879
 30
0.0
 10
7.835838609209075
 20
7.456157940607797
 30
0.0
 10
7.468312547311919
 20
7.331903205356926
 30
0.0
  0
ELLIPSE
  5
FE8
330
FB2
100
AcDbEntity
  8
0
100
AcDbEllipse
 10
-2.61545816033549
 20
1.510035472870088
 30
0.0
 11
-7.130302647301923
 21
-12.35004645849087
 31
0.0
210
0.0
220
0.0
230
1.0
 40
0.5773502691896259
 41
1.57079632679256
 42
2.356194490189958
  0
ELLIPSE
  5
FE9
330
FB2
100
AcDbEntity
  8
0
100
AcDbEllipse
 10
48.23896295684275
 20
-27.85077824864484
 30
0.0
 11
4.200766999269519
 21
7.275941873494469
 31
0.0
210
0.0
220
0.0
230
1.0
 40
0.5773502691896258
 41
3.926990816986997
 42
5.497787143785822
  0
LINE
  5
FEA
330
FB2
100
AcDbEntity
  8
0
100
AcDbLine
 10
49.60887919037453
 20
-35.92650134288265
 30
0.0
 11
48.23896295684275
 21
-34.71060203300073
 31
0.0
  0
ELLIPSE
  5
FEB
330
FB2
100
AcDbEntity
  8
0
100
AcDbEllipse
 10
49.60887919037453
 20
-28.64169975484164
 30
0.0
 11
4.461011692028804
 21
7.726698903753757
 31
0.0
210
0.0
220
0.0
230
1.0
 40
0.5773502691896259
 41
3.926990816987
 42
5.497787143785568
  0
LINE
  5
FEC
330
FB2
100
AcDbEntity
  8
0
100
AcDbLine
 10
48.66724378241037
 20
-39.54289428692498
 30
0.0
 11
49.60887919037453
 21
-35.92650134288265
 31
0.0
  0
ELLIPSE
  5
FED
330
FB2
100
AcDbEntity
  8
0
100
AcDbEllipse
 10
48.66724378241037
 20
-28.09804629857504
 30
0.0
 11
7.008509438793234
 21
12.13909443331759
 31
0.0
210
0.0
220
0.0
230
1.0
 40
0.5773502691896259
 41
3.926990816987
 42
4.712388980384362
  0
SPLINE
  5
FEE
330
FB2
100
AcDbEntity
  8
0
100
AcDbSpline
210
0.0
220
0.0
230
1.0
 70
     8
 71
     3
 72
    10
 73
     6
 74
     0
 42
0.000000001
 43
0.0000000001
 40
0.0
 40
0.0
 40
0.0
 40
0.0
 40
0.3169556783967818
 40
0.3169556783967818
 40
0.3912780802700877
 40
0.3912780802700877
 40
0.3912780802700877
 40
0.3912780802700877
 10
48.66724378241038
 20
-39.54289428692497
 30
0.0
 10
48.47832860294865
 20
-40.26843149192978
 30
0.0
 10
48.14775399008511
 20
-40.86047194460598
 30
0.0
 10
47.58881150645797
 20
-41.38487675016982
 30
0.0
 10
47.47641522891735
 20
-41.47482899836896
 30
0.0
 10
47.35821790383987
 20
-41.55494689978556
 30
0.0
  0
ELLIPSE
  5
FEF
330
FB2
100
AcDbEntity
  8
0
100
AcDbEllipse
 10
-2.615458160348254
 20
1.510035472847981
 30
0.0
 11
7.130302647310307
 21
12.35004645848603
 31
0.0
210
0.0
220
0.0
230
1.0
 40
0.5773502691896258
 41
3.926990816987
 42
4.712388980384397
  0
SPLINE
  5
FF0
330
FB2
100
AcDbEntity
  8
0
100
AcDbSpline
210
0.0
220
0.0
230
1.0
 70
     8
 71
     3
 72
    14
 73
    10
 74
     0
 42
0.000000001
 43
0.0000000001
 40
0.0
 40
0.0
 40
0.0
 40
0.0
 40
0.199453978593692
 40
0.199453978593692
 40
0.398206262607084
 40
0.398206262607084
 40
0.533079435304611
 40
0.533079435304611
 40
0.6608611733068291
 40
0.6608611733068291
 40
0.6608611733068291
 40
0.6608611733068291
 10
0.8166051875817936
 20
-15.16840568165434
 30
0.0
 10
0.3464876515876725
 20
-14.89698319569737
 30
0.0
 10
-0.1190862047352237
 20
-14.52055680439277
 30
0.0
 10
-0.9852461545609969
 20
-13.60306641533087
 30
0.0
 10
-1.377676190651331
 20
-13.07145951745262
 30
0.0
 10
-1.930982638815099
 20
-12.10687793905597
 30
0.0
 10
-2.123231452527472
 20
-11.70149154027883
 30
0.0
 10
-2.426139653157179
 20
-10.90322604342498
 30
0.0
 10
-2.539302886667904
 20
-10.51411426595239
 30
0.0
 10
-2.615458160348254
 20
-10.13369999217078
 30
0.0
  0
ELLIPSE
  5
FF1
330
FB2
100
AcDbEntity
  8
0
100
AcDbEllipse
 10
-3.698306810005389
 20
2.135218432219154
 30
0.0
 11
4.200766999269519
 21
7.275941873494469
 31
0.0
210
0.0
220
0.0
230
1.0
 40
0.5773502691896258
 41
3.926990816986998
 42
5.497787143781792
  0
LINE
  5
FF2
330
FB2
100
AcDbEntity
  8
0
100
AcDbLine
 10
-3.698306810005389
 20
-4.724605352136732
 30
0.0
 11
-2.615458160348254
 21
-10.13369999217078
 31
0.0
  0
LINE
  5
FF3
330
FB2
100
AcDbEntity
  8
0
100
AcDbLine
 10
2.242474852741032
 20
5.565130324405052
 30
0.0
 11
7.468312547311919
 21
7.331903205356922
 31
0.0
  0
ELLIPSE
  5
FF4
330
FB2
100
AcDbEntity
  8
0
100
AcDbEllipse
 10
-5.06822304353717
 20
2.926139938415968
 30
0.0
 11
4.461011692028804
 21
7.726698903753757
 31
0.0
210
0.0
220
0.0
230
1.0
 40
0.5773502691896259
 41
3.926990816987
 42
5.497787143781572
  0
LINE
  5
FF5
330
FB2
100
AcDbEntity
  8
0
100
AcDbLine
 10
-5.06822304353717
 20
-4.358661649625044
 30
0.0
 11
-3.698306810005389
 21
-4.724605352136732
 31
0.0
  0
LINE
  5
FF6
330
FB2
100
AcDbEntity
  8
0
100
AcDbLine
 10
1.240600193244283
 20
6.568540732442507
 30
0.0
 11
2.242474852741032
 21
5.565130324405052
 31
0.0
  0
SPLINE
  5
FF7
330
FB2
100
AcDbEntity
  8
0
100
AcDbSpline
210
0.0
220
0.0
230
1.0
 70
     8
 71
     3
 72
    10
 73
     6
 74
     0
 42
0.000000001
 43
0.0000000001
 40
0.0108587732793308
 40
0.0108587732793308
 40
0.0108587732793308
 40
0.0108587732793308
 40
0.6840548550461866
 40
0.6840548550461866
 40
1.334624733306382
 40
1.334624733306382
 40
1.334624733306382
 40
1.334624733306382
 10
59.6734412605901
 20
-20.14363210535075
 30
0.0
 10
59.66254783381187
 20
-22.21970635188254
 30
0.0
 10
59.31446153673778
 20
-24.37192974403771
 30
0.0
 10
58.08380887593748
 20
-28.49629916067181
 30
0.0
 10
57.20289080092925
 20
-30.52205977344837
 30
0.0
 10
56.11860767049424
 20
-32.40009324514852
 30
0.0
  0
SPLINE
  5
FF8
330
FB2
100
AcDbEntity
  8
0
100
AcDbSpline
210
0.0
220
0.0
230
1.0
 70
     8
 71
     3
 72
    10
 73
     6
 74
     0
 42
0.000000001
 43
0.0000000001
 40
0.0
 40
0.0
 40
0.0
 40
0.0
 40
0.6526959480172863
 40
0.6526959480172863
 40
1.334625632290557
 40
1.334625632290557
 40
1.334625632290557
 40
1.334625632290557
 10
56.11860767047623
 20
-32.40009324517973
 30
0.0
 10
55.03078109044742
 20
-34.28426415161353
 30
0.0
 10
53.71177124391689
 20
-36.06555914856489
 30
0.0
 10
50.72892128770579
 20
-39.21627847643834
 30
0.0
 10
49.01387188304885
 20
-40.60708711261515
 30
0.0
 10
47.19479861077886
 20
-41.65732955603587
 30
0.0
  0
LINE
  5
FF9
330
FB2
100
AcDbEntity
  8
0
100
AcDbLine
 10
-63.99669923134009
 20
-45.51764314532189
 30
0.0
 11
-63.6430732597455
 21
-40.84147180563301
 31
0.0
  0
LINE
  5
FFA
330
FB2
100
AcDbEntity
  8
0
100
AcDbLine
 10
-63.99669923134012
 20
-47.15063630717733
 30
0.0
 11
-63.99669923134009
 21
-45.51764314532189
 31
0.0
  0
LINE
  5
FFB
330
FB2
100
AcDbEntity
  8
0
100
AcDbLine
 10
-0.7430039535508826
 20
-77.1568437516106
 30
0.0
 11
-8.84237029878939
 21
-77.36100980150317
 31
0.0
  0
LINE
  5
FFC
330
FB2
100
AcDbEntity
  8
0
100
AcDbLine
 10
-8.84237029878939
 20
-77.36100980150317
 30
0.0
 11
-8.84237029878939
 21
-78.99400296335864
 31
0.0
  0
LINE
  5
FFD
330
FB2
100
AcDbEntity
  8
0
100
AcDbLine
 10
67.86249835037208
 20
40.03837875561354
 30
0.0
 11
63.98962816355552
 21
47.15471879009645
 31
0.0
  0
LINE
  5
FFE
330
FB2
100
AcDbEntity
  8
0
100
AcDbLine
 10
63.98962816355552
 20
47.15471879009645
 30
0.0
 11
62.57541460118307
 21
46.33822220917187
 31
0.0
  0
LINE
  5
FFF
330
FB2
100
AcDbEntity
  8
0
100
AcDbLine
 10
62.57541460118307
 20
46.33822220917187
 30
0.0
 11
66.44828478799962
 21
39.22188217468897
 31
0.0
  0
LINE
  5
1000
330
FB2
100
AcDbEntity
  8
0
100
AcDbLine
 10
66.44828478799962
 20
39.22188217468897
 30
0.0
 11
67.86249835037208
 21
40.03837875561354
 31
0.0
  0
LINE
  5
1001
330
FB2
100
AcDbEntity
  8
0
100
AcDbLine
 10
7.421085668606943
 20
78.18158886530913
 30
0.0
 11
8.835299230979391
 21
78.99808544623372
 31
0.0
  0
LINE
  5
1002
330
FB2
100
AcDbEntity
  8
0
100
AcDbLine
 10
3.548215481775982
 20
75.53725412061635
 30
0.0
 11
7.421085668606943
 21
78.18158886530913
 31
0.0
  0
LINE
  5
1003
330
FB2
100
AcDbEntity
  8
0
100
AcDbLine
 10
-8.84237029878939
 20
-78.99400296335864
 30
0.0
 11
-0.7430039535508782
 21
-78.78983691346608
 31
0.0
  0
LINE
  5
1004
330
FB2
100
AcDbEntity
  8
0
100
AcDbLine
 10
-0.7430039535508782
 20
-78.78983691346608
 30
0.0
 11
-0.7430039535508826
 21
-77.1568437516106
 31
0.0
  0
LINE
  5
1005
330
FB2
100
AcDbEntity
  8
0
100
AcDbLine
 10
-63.99669923134009
 20
-45.51764314532189
 30
0.0
 11
-8.84237029878939
 21
-77.36100980150318
 31
0.0
  0
LINE
  5
1006
330
FB2
100
AcDbEntity
  8
0
100
AcDbLine
 10
-0.7430039535508826
 20
-77.1568437516106
 30
0.0
 11
8.305129466938252
 21
-70.93119178862057
 31
0.0
  0
LINE
  5
1007
330
FB2
100
AcDbEntity
  8
0
100
AcDbLine
 10
-63.6430732597455
 20
-40.84147180563301
 30
0.0
 11
-52.85992774960586
 21
-35.61752953964997
 31
0.0
  0
LINE
  5
1008
330
FB2
100
AcDbEntity
  8
0
100
AcDbLine
 10
-8.84237029878939
 20
-78.99400296335864
 30
0.0
 11
-63.99669923134012
 21
-47.15063630717732
 31
0.0
  0
LINE
  5
1009
330
FB2
100
AcDbEntity
  8
0
100
AcDbLine
 10
-0.7430039535508782
 20
-78.78983691346608
 30
0.0
 11
8.305129466938243
 21
-72.56418495047603
 31
0.0
  0
LINE
  5
100A
330
FB2
100
AcDbEntity
  8
0
100
AcDbLine
 10
8.305129466938252
 20
-70.93119178862057
 30
0.0
 11
5.623204994445138
 21
-69.3827819724804
 31
0.0
  0
LINE
  5
100B
330
FB2
100
AcDbEntity
  8
0
100
AcDbLine
 10
5.623204994445138
 20
-69.3827819724804
 30
0.0
 11
5.619019828326154
 21
-69.380365665695
 31
0.0
  0
LINE
  5
100C
330
FB2
100
AcDbEntity
  8
0
100
AcDbLine
 10
8.096925368672312
 20
-67.59125071985789
 30
0.0
 11
5.619019828326155
 21
-69.380365665695
 31
0.0
  0
LINE
  5
100D
330
FB2
100
AcDbEntity
  8
0
100
AcDbLine
 10
-45.43714516565596
 20
-34.98160811991113
 30
0.0
 11
-50.17381811099376
 21
-37.16835566257552
 31
0.0
  0
LINE
  5
100E
330
FB2
100
AcDbEntity
  8
0
100
AcDbLine
 10
-50.17381811099375
 20
-37.16835566257552
 30
0.0
 11
-50.17800327711274
 21
-37.16593935579012
 31
0.0
  0
LINE
  5
100F
330
FB2
100
AcDbEntity
  8
0
100
AcDbLine
 10
-50.17800327711274
 20
-37.16593935579012
 30
0.0
 11
-52.85992774960586
 21
-35.61752953964997
 31
0.0
  0
LINE
  5
1010
330
FB2
100
AcDbEntity
  8
0
100
AcDbLine
 10
63.35141465764175
 20
23.79895252472772
 30
0.0
 11
62.2747998195652
 21
22.73746645522535
 31
0.0
  0
LINE
  5
1011
330
FB2
100
AcDbEntity
  8
0
100
AcDbLine
 10
64.93046783256341
 20
25.35581658502381
 30
0.0
 11
63.35141465764175
 21
23.79895252472772
 31
0.0
  0
LINE
  5
1012
330
FB2
100
AcDbEntity
  8
0
100
AcDbLine
 10
64.93046783256341
 20
25.35581658502382
 30
0.0
 11
64.70212937876862
 21
26.00403177846169
 31
0.0
  0
LINE
  5
1013
330
FB2
100
AcDbEntity
  8
0
100
AcDbLine
 10
62.2747998195652
 20
22.73746645522535
 30
0.0
 11
66.99499230552951
 21
29.08963937512821
 31
0.0
  0
SPLINE
  5
1014
330
FB2
100
AcDbEntity
  8
0
100
AcDbSpline
210
0.0
220
0.0
230
1.0
 70
     8
 71
     3
 72
    10
 73
     6
 74
     0
 42
0.000000001
 43
0.0000000001
 40
-0.0005174321478402
 40
-0.0005174321478402
 40
-0.0005174321478402
 40
-0.0005174321478402
 40
-0.0002794705695846
 40
-0.0002794705695846
 40
0.0
 40
0.0
 40
0.0
 40
0.0
 10
64.93129069593182
 20
25.35868901821508
 30
0.0
 10
64.93144871552248
 20
25.35824134148916
 30
0.0
 10
64.93147591256058
 20
25.35778097804743
 30
0.0
 10
64.93124490883623
 20
25.35679410963717
 30
0.0
 10
64.93093856919026
 20
25.35628070678226
 30
0.0
 10
64.93046783256341
 20
25.35581658502382
 30
0.0
  0
LINE
  5
1015
330
FB2
100
AcDbEntity
  8
0
100
AcDbLine
 10
62.59957470847556
 20
26.91158095436126
 30
0.0
 11
62.89885427066267
 21
29.82155261034165
 31
0.0
  0
LINE
  5
1016
330
FB2
100
AcDbEntity
  8
0
100
AcDbLine
 10
62.89885427066268
 20
29.82155261034165
 30
0.0
 11
62.89466910454371
 21
29.82396891712704
 31
0.0
  0
LINE
  5
1017
330
FB2
100
AcDbEntity
  8
0
100
AcDbLine
 10
62.58420288132619
 20
26.78348229808282
 30
0.0
 11
62.89466910454372
 21
29.82396891712704
 31
0.0
  0
LINE
  5
1018
330
FB2
100
AcDbEntity
  8
0
100
AcDbLine
 10
60.53684201199708
 20
23.31589905957933
 30
0.0
 11
60.54394837981201
 21
23.32290556754627
 31
0.0
  0
LINE
  5
1019
330
FB2
100
AcDbEntity
  8
0
100
AcDbLine
 10
60.53684201199708
 20
23.31589905957934
 30
0.0
 11
65.58077874315705
 21
28.27314279420367
 31
0.0
  0
LINE
  5
101A
330
FB2
100
AcDbEntity
  8
0
100
AcDbLine
 10
65.58077874315704
 20
28.27314279420365
 30
0.0
 11
62.89885427066268
 21
29.82155261034165
 31
0.0
  0
LINE
  5
101B
330
FB2
100
AcDbEntity
  8
0
100
AcDbLine
 10
62.2747998195652
 20
22.73746645522535
 30
0.0
 11
60.53684201199708
 21
23.31589905957933
 31
0.0
  0
LINE
  5
101C
330
FB2
100
AcDbEntity
  8
0
100
AcDbLine
 10
66.99499230552948
 20
29.08963937512823
 30
0.0
 11
65.58077874315704
 21
28.27314279420365
 31
0.0
  0
LINE
  5
101D
330
FB2
100
AcDbEntity
  8
0
100
AcDbLine
 10
3.351879645774848
 20
56.75663027893929
 30
0.0
 11
4.386957707109004
 21
59.95062731937363
 31
0.0
  0
SPLINE
  5
101E
330
FB2
100
AcDbEntity
  8
0
100
AcDbSpline
210
0.0
220
0.0
230
1.0
 70
     8
 71
     3
 72
    14
 73
    10
 74
     0
 42
0.000000001
 43
0.0000000001
 40
-0.000583230480947
 40
-0.000583230480947
 40
-0.000583230480947
 40
-0.000583230480947
 40
-0.0004694205920055
 40
-0.0004694205920055
 40
-0.0003494573215722
 40
-0.0003494573215722
 40
-0.0001747183185168
 40
-0.0001747183185168
 40
0.0
 40
0.0
 40
0.0
 40
0.0
 10
7.576388714249358
 20
56.84052604878272
 30
0.0
 10
7.576120427302672
 20
56.84068094432362
 30
0.0
 10
7.575818886310337
 20
56.84081539653914
 30
0.0
 10
7.575146341650969
 20
56.84104273734423
 30
0.0
 10
7.574775485827442
 20
56.84113196377317
 30
0.0
 10
7.573825978927675
 20
56.84127760109134
 30
0.0
 10
7.573238993327651
 20
56.84129900890297
 30
0.0
 10
7.572084581610343
 20
56.84120893569506
 30
0.0
 10
7.571528632962314
 20
56.84109836071666
 30
0.0
 10
7.571026064863488
 20
56.8409284504095
 30
0.0
  0
LINE
  5
101F
330
FB2
100
AcDbEntity
  8
0
100
AcDbLine
 10
7.576388714249362
 20
56.84052604878275
 30
0.0
 11
7.101831165198081
 21
62.035978920202
 31
0.0
  0
LINE
  5
1020
330
FB2
100
AcDbEntity
  8
0
100
AcDbLine
 10
7.101831165198082
 20
62.03597892020199
 30
0.0
 11
7.097645999079089
 21
62.03839522698739
 31
0.0
  0
LINE
  5
1021
330
FB2
100
AcDbEntity
  8
0
100
AcDbLine
 10
7.571026064863484
 20
56.84092845040949
 30
0.0
 11
7.097645999079088
 21
62.03839522698739
 31
0.0
  0
LINE
  5
1022
330
FB2
100
AcDbEntity
  8
0
100
AcDbLine
 10
7.571026064863488
 20
56.8409284504095
 30
0.0
 11
4.353754305271633
 21
55.7532198709018
 31
0.0
  0
LINE
  5
1023
330
FB2
100
AcDbEntity
  8
0
100
AcDbLine
 10
7.097645999079089
 20
62.03839522698739
 30
0.0
 11
4.415721526584737
 21
63.58680504312541
 31
0.0
  0
LINE
  5
1024
330
FB2
100
AcDbEntity
  8
0
100
AcDbLine
 10
4.353754305271628
 20
55.7532198709018
 30
0.0
 11
4.415721526584723
 21
63.58680504312541
 31
0.0
  0
LINE
  5
1025
330
FB2
100
AcDbEntity
  8
0
100
AcDbLine
 10
4.353754305271633
 20
55.7532198709018
 30
0.0
 11
3.351879645774853
 21
56.75663027893929
 31
0.0
  0
LINE
  5
1026
330
FB2
100
AcDbEntity
  8
0
100
AcDbLine
 10
11.44617634182723
 20
-65.30029188693205
 30
0.0
 11
11.06520985891049
 21
-66.76341072155134
 31
0.0
  0
LINE
  5
1027
330
FB2
100
AcDbEntity
  8
0
100
AcDbLine
 10
11.44617634182723
 20
-65.30029188693205
 30
0.0
 11
8.305129466938261
 21
-72.56418495047603
 31
0.0
  0
LINE
  5
1028
330
FB2
100
AcDbEntity
  8
0
100
AcDbLine
 10
10.50645261991202
 20
-68.90934291511169
 30
0.0
 11
9.83091256837973
 21
-69.03570361018243
 31
0.0
  0
LINE
  5
1029
330
FB2
100
AcDbEntity
  8
0
100
AcDbLine
 10
11.06520985891049
 20
-66.76341072155134
 30
0.0
 11
10.50645261991202
 21
-68.90934291511169
 31
0.0
  0
SPLINE
  5
102A
330
FB2
100
AcDbEntity
  8
0
100
AcDbSpline
210
0.0
220
0.0
230
1.0
 70
     8
 71
     3
 72
    12
 73
     8
 74
     0
 42
0.000000001
 43
0.0000000001
 40
-0.0009334263842614
 40
-0.0009334263842614
 40
-0.0009334263842614
 40
-0.0009334263842614
 40
-0.0007531932240205
 40
-0.0007531932240205
 40
-0.0005629245092829
 40
-0.0005629245092829
 40
-0.0004166599462962
 40
-0.0004166599462962
 40
-0.0004166599462962
 40
-0.0004166599462962
 10
10.50645261991199
 20
-68.90934291511171
 30
0.0
 10
10.50634521068575
 20
-68.90975542505407
 30
0.0
 10
10.50618562773972
 20
-68.91011993717174
 30
0.0
 10
10.50575841715134
 20
-68.91075261224256
 30
0.0
 10
10.5054872548824
 20
-68.91101134176027
 30
0.0
 10
10.50492921591983
 20
-68.91133994478995
 30
0.0
 10
10.50466258797499
 20
-68.91143841932152
 30
0.0
 10
10.50437645113583
 20
-68.91149175089148
 30
0.0
  0
LINE
  5
102B
330
FB2
100
AcDbEntity
  8
0
100
AcDbLine
 10
7.993674591718482
 20
-67.66861244081136
 30
0.0
 11
5.623204994445138
 21
-69.38278197248042
 31
0.0
  0
LINE
  5
102C
330
FB2
100
AcDbEntity
  8
0
100
AcDbLine
 10
10.07374547831039
 20
-64.09405012609507
 30
0.0
 11
10.07626010829542
 21
-64.08439257705009
 31
0.0
  0
LINE
  5
102D
330
FB2
100
AcDbEntity
  8
0
100
AcDbLine
 10
10.07626010829542
 20
-64.08439257705009
 30
0.0
 11
8.305129466938257
 21
-70.93119178862057
 31
0.0
  0
LINE
  5
102E
330
FB2
100
AcDbEntity
  8
0
100
AcDbLine
 10
10.07626010829542
 20
-64.08439257705009
 30
0.0
 11
11.44617634182723
 21
-65.30029188693205
 31
0.0
  0
LINE
  5
102F
330
FB2
100
AcDbEntity
  8
0
100
AcDbLine
 10
8.305129466938243
 20
-72.56418495047603
 30
0.0
 11
8.305129466938252
 21
-70.93119178862057
 31
0.0
  0
LINE
  5
1030
330
FB2
100
AcDbEntity
  8
0
100
AcDbLine
 10
-47.47674383193594
 20
-31.28112806317106
 30
0.0
 11
-49.72528737789641
 21
-33.77453047939903
 31
0.0
  0
SPLINE
  5
1031
330
FB2
100
AcDbEntity
  8
0
100
AcDbSpline
210
0.0
220
0.0
230
1.0
 70
     8
 71
     3
 72
    14
 73
    10
 74
     0
 42
0.000000001
 43
0.0000000001
 40
-0.0005833068335805
 40
-0.0005833068335805
 40
-0.0005833068335805
 40
-0.0005833068335805
 40
-0.0004706209334314
 40
-0.0004706209334314
 40
-0.0003516683788188
 40
-0.0003516683788188
 40
-0.000176229190157
 40
-0.000176229190157
 40
0.0
 40
0.0
 40
0.0
 40
0.0
 10
-45.44017498038019
 20
-34.97716513012475
 30
0.0
 10
-45.44010782453991
 20
-34.977500590021
 30
0.0
 10
-45.44000804298971
 20
-34.97784371227964
 30
0.0
 10
-45.43974093519394
 20
-34.97854768554912
 30
0.0
 10
-45.43957139960307
 20
-34.97890519976437
 30
0.0
 10
-45.43908321222687
 20
-34.97975633558284
 30
0.0
 10
-45.43873682534137
 20
-34.98022553442581
 30
0.0
 10
-45.43797190436212
 20
-34.98103577537076
 30
0.0
 10
-45.43756054184061
 20
-34.98136830235909
 30
0.0
 10
-45.43714516565595
 20
-34.98160811991112
 30
0.0
  0
LINE
  5
1032
330
FB2
100
AcDbEntity
  8
0
100
AcDbLine
 10
-45.44017498038018
 20
-34.97716513012474
 30
0.0
 11
-50.17800327711274
 21
-37.16593935579012
 31
0.0
  0
LINE
  5
1033
330
FB2
100
AcDbEntity
  8
0
100
AcDbLine
 10
-46.10682759840414
 20
-31.64707176568275
 30
0.0
 11
-45.44017498038019
 21
-34.97716513012475
 31
0.0
  0
LINE
  5
1034
330
FB2
100
AcDbEntity
  8
0
100
AcDbLine
 10
-46.10682759840414
 20
-31.64707176568275
 30
0.0
 11
-52.85992774960586
 21
-35.61752953964997
 31
0.0
  0
LINE
  5
1035
330
FB2
100
AcDbEntity
  8
0
100
AcDbLine
 10
-47.47674383193594
 20
-31.28112806317105
 30
0.0
 11
-46.10682759840414
 21
-31.64707176568275
 31
0.0
  0
SPLINE
  5
1036
330
FB2
100
AcDbEntity
  8
0
100
AcDbSpline
210
0.0
220
0.0
230
1.0
 70
     8
 71
     3
 72
     8
 73
     4
 74
     0
 42
0.000000001
 43
0.0000000001
 40
0.313294714391454
 40
0.313294714391454
 40
0.313294714391454
 40
0.313294714391454
 40
0.38413095044288
 40
0.38413095044288
 40
0.38413095044288
 40
0.38413095044288
 10
64.70305171804875
 20
26.00527301144431
 30
0.0
 10
64.77913155705497
 20
25.78974500619056
 30
0.0
 10
64.85521388138218
 20
25.5742161742868
 30
0.0
 10
64.9312906962289
 20
25.3586890182501
 30
0.0
  0
SPLINE
  5
1037
330
FB2
100
AcDbEntity
  8
0
100
AcDbSpline
210
0.0
220
0.0
230
1.0
 70
     8
 71
     3
 72
    36
 73
    32
 74
     0
 42
0.000000001
 43
0.0000000001
 40
0.0
 40
0.0
 40
0.0
 40
0.0
 40
0.2084287069509544
 40
0.2084287069509544
 40
0.3200353929964355
 40
0.3200353929964355
 40
0.3780803116892418
 40
0.3780803116892418
 40
0.4075427124176233
 40
0.4075427124176233
 40
0.4223408576325085
 40
0.4223408576325085
 40
0.4297491566479605
 40
0.4297491566479605
 40
0.4334545951203481
 40
0.4334545951203481
 40
0.4353075440921517
 40
0.4353075440921517
 40
0.4362341361612961
 40
0.4362341361612961
 40
0.4366976937148757
 40
0.4366976937148757
 40
0.4369307257898711
 40
0.4369307257898711
 40
0.43696446377952
 40
0.43696446377952
 40
0.4369828362800214
 40
0.4369828362800214
 40
0.4370602376360473
 40
0.4370602376360473
 40
0.4372965528324208
 40
0.4372965528324208
 40
0.4372965528324208
 40
0.4372965528324208
 10
60.54394837981205
 20
23.32290556754629
 30
0.0
 10
61.02352275212462
 20
23.79574088199323
 30
0.0
 10
61.46920043462771
 20
24.30902255757941
 30
0.0
 10
62.02412927056143
 20
25.17358590300064
 30
0.0
 10
62.19419747608107
 20
25.49176446837067
 30
0.0
 10
62.39476421026829
 20
25.99625947030309
 30
0.0
 10
62.45328645440932
 20
26.17320800375666
 30
0.0
 10
62.5227080199454
 20
26.44435108417192
 30
0.0
 10
62.54290832105546
 20
26.53651859949693
 30
0.0
 10
62.56806342307398
 20
26.67587225494934
 30
0.0
 10
62.57560691325967
 20
26.72263468624012
 30
0.0
 10
62.58557883452275
 20
26.79300066635286
 30
0.0
 10
62.58868093197276
 20
26.81651060620186
 30
0.0
 10
62.59299231881704
 20
26.85182425120265
 30
0.0
 10
62.59437274546266
 20
26.86360597142098
 30
0.0
 10
62.59635736263405
 20
26.88129053251643
 30
0.0
 10
62.59700459883963
 20
26.88718771262192
 30
0.0
 10
62.59795400350225
 20
26.89603759398259
 30
0.0
 10
62.59826689764787
 20
26.89898825165685
 30
0.0
 10
62.59873114251675
 20
26.90341786415955
 30
0.0
 10
62.59888501870245
 20
26.90489479228201
 30
0.0
 10
62.59911547874437
 20
26.90711996410247
 30
0.0
 10
62.59919176684668
 20
26.90785875522596
 30
0.0
 10
62.5992820390119
 20
26.90873550240465
 30
0.0
 10
62.59929378728035
 20
26.90884965077665
 30
0.0
 10
62.59931135092688
 20
26.90902035156963
 30
0.0
 10
62.5993174468078
 20
26.90907960634207
 30
0.0
 10
62.59934727400689
 20
26.90936956163318
 30
0.0
 10
62.59936734235897
 20
26.90956469654055
 30
0.0
 10
62.59945079943133
 20
26.91037615103593
 30
0.0
 10
62.59951259289078
 20
26.9109769886583
 30
0.0
 10
62.59957470847563
 20
26.91158095436193
 30
0.0
  0
SPLINE
  5
1038
330
FB2
100
AcDbEntity
  8
0
100
AcDbSpline
210
0.0
220
0.0
230
1.0
 70
     8
 71
     3
 72
     8
 73
     4
 74
     0
 42
0.000000001
 43
0.0000000001
 40
0.0
 40
0.0
 40
0.0
 40
0.0
 40
0.0708362360512929
 40
0.0708362360512929
 40
0.0708362360512929
 40
0.0708362360512929
 10
10.50437645160009
 20
-68.91149175256302
 30
0.0
 10
10.27968605184399
 20
-68.95337087628475
 30
0.0
 10
10.0549914460042
 20
-68.99524606658994
 30
0.0
 10
9.830298798724825
 20
-69.03712299592125
 30
0.0
  0
SPLINE
  5
1039
330
FB2
100
AcDbEntity
  8
0
100
AcDbSpline
210
0.0
220
0.0
230
1.0
 70
     8
 71
     3
 72
    28
 73
    24
 74
     0
 42
0.000000001
 43
0.0000000001
 40
0.0
 40
0.0
 40
0.0
 40
0.0
 40
0.0002620161043339
 40
0.0002620161043339
 40
0.0003145712489371
 40
0.0003145712489371
 40
0.0003412539217712
 40
0.0003412539217712
 40
0.0003943403682331
 40
0.0003943403682331
 40
0.0037576089354046
 40
0.0037576089354046
 40
0.0087285808408213
 40
0.0087285808408213
 40
0.0236437777000628
 40
0.0236437777000628
 40
0.068445140073294
 40
0.068445140073294
 40
0.2038699867452631
 40
0.2038699867452631
 40
0.3758817754489574
 40
0.3758817754489574
 40
0.43722729257871
 40
0.43722729257871
 40
0.43722729257871
 40
0.43722729257871
 10
7.993674591718482
 20
-67.66861244081137
 30
0.0
 10
7.99422009107638
 20
-67.66821797113333
 30
0.0
 10
7.994757875224789
 20
-67.66782908207907
 30
0.0
 10
7.99542957725714
 20
-67.66734334639078
 30
0.0
 10
7.995542711068335
 20
-67.66726153489104
 30
0.0
 10
7.995738988436151
 20
-67.66711959312075
 30
0.0
 10
7.995811883152903
 20
-67.66706687661623
 30
0.0
 10
7.996027177962643
 20
-67.66691116929448
 30
0.0
 10
7.996170433584754
 20
-67.66680755062383
 30
0.0
 10
8.005205474254001
 20
-67.66027145285315
 30
0.0
 10
8.013753282532981
 20
-67.65402902517078
 30
0.0
 10
8.035232754509525
 20
-67.63819854458294
 30
0.0
 10
8.047980979198264
 20
-67.62867361261881
 30
0.0
 10
8.098725488422253
 20
-67.59024318278133
 30
0.0
 10
8.136220668389281
 20
-67.56067857553913
 30
0.0
 10
8.2839889858082
 20
-67.43953789242502
 30
0.0
 10
8.389724161906858
 20
-67.34222673168504
 30
0.0
 10
8.793035411756552
 20
-66.93036680969164
 30
0.0
 10
9.048540076846292
 20
-66.57150600179983
 30
0.0
 10
9.533071595592016
 20
-65.71266112823161
 30
0.0
 10
9.742238529555571
 20
-65.1940410585633
 30
0.0
 10
9.969328416667821
 20
-64.47642326541322
 30
0.0
 10
10.02379867795474
 20
-64.28587304912442
 30
0.0
 10
10.07374547831038
 20
-64.09405012609505
 30
0.0
  0
SPLINE
  5
103A
330
FB2
100
AcDbEntity
  8
0
100
AcDbSpline
210
0.0
220
0.0
230
1.0
 70
     8
 71
     3
 72
    22
 73
    18
 74
     0
 42
0.000000001
 43
0.0000000001
 40
-4.897529978889972
 40
-4.897529978889972
 40
-4.897529978889972
 40
-4.897529978889972
 40
-4.212211404741951
 40
-4.212211404741951
 40
-3.426544654644045
 40
-3.426544654644045
 40
-2.640877904546138
 40
-2.640877904546138
 40
-1.855211154448231
 40
-1.855211154448231
 40
-1.069544404350324
 40
-1.069544404350324
 40
-0.2838776542524175
 40
-0.2838776542524175
 40
0.5017890958454895
 40
0.5017890958454895
 40
0.8489427889776306
 40
0.8489427889776306
 40
0.8489427889776306
 40
0.8489427889776306
 10
-45.43714516565596
 20
-34.98160811991113
 30
0.0
 10
-43.68790646201155
 20
-34.13330313005765
 30
0.0
 10
-41.90508047697401
 20
-33.30776989650794
 30
0.0
 10
-38.02388210043492
 20
-31.57277120870106
 30
0.0
 10
-35.91753023747607
 20
-30.66871573619654
 30
0.0
 10
-31.66279614215089
 20
-28.88910085546557
 30
0.0
 10
-29.51441390978457
 20
-28.01354144723914
 30
0.0
 10
-25.20032514788692
 20
-26.27416828738039
 30
0.0
 10
-23.03461861835563
 20
-25.41035453574808
 30
0.0
 10
-18.71058733437062
 20
-23.67772228139366
 30
0.0
 10
-16.55226257991691
 20
-22.80890377867154
 30
0.0
 10
-12.26770091832961
 20
-21.04951161445357
 30
0.0
 10
-10.14146401119601
 20
-20.1589379529577
 30
0.0
 10
-5.945784116491505
 20
-18.33928506350829
 30
0.0
 10
-3.876341128920577
 20
-17.41020583555475
 30
0.0
 10
-0.9512524781497244
 20
-16.03076920898219
 30
0.0
 10
-0.0628128122080618
 20
-15.6026457336724
 30
0.0
 10
0.8166051875817936
 20
-15.16840568165434
 30
0.0
  0
SPLINE
  5
103B
330
FB2
100
AcDbEntity
  8
0
100
AcDbSpline
210
0.0
220
0.0
230
1.0
 70
     8
 71
     3
 72
    22
 73
    18
 74
     0
 42
0.000000001
 43
0.0000000001
 40
-4.897529978889973
 40
-4.897529978889973
 40
-4.897529978889973
 40
-4.897529978889973
 40
-4.212211404741951
 40
-4.212211404741951
 40
-3.426544654644045
 40
-3.426544654644045
 40
-2.640877904546138
 40
-2.640877904546138
 40
-1.855211154448231
 40
-1.855211154448231
 40
-1.069544404350324
 40
-1.069544404350324
 40
-0.2838776542524175
 40
-0.2838776542524175
 40
0.5017890958454895
 40
0.5017890958454895
 40
0.8489427889776306
 40
0.8489427889776306
 40
0.8489427889776306
 40
0.8489427889776306
 10
7.576388714249358
 20
56.84052604878275
 30
0.0
 10
7.71635439469867
 20
54.90148839921467
 30
0.0
 10
7.892834635292436
 20
52.94474918886798
 30
0.0
 10
8.330880884382864
 20
48.71603345374989
 30
0.0
 10
8.601121810240028
 20
46.43985149486401
 30
0.0
 10
9.187297162230807
 20
41.86533624159403
 30
0.0
 10
9.503231588364432
 20
39.56700294720992
 30
0.0
 10
10.15393462620881
 20
34.9612059052912
 30
0.0
 10
10.48870323791956
 20
32.65374215775661
 30
0.0
 10
11.1502153322189
 20
28.0427050918847
 30
0.0
 10
11.47695881480747
 20
25.73913177354739
 30
0.0
 10
12.0955613361631
 20
21.14889644841787
 30
0.0
 10
12.38742037493015
 20
18.86223444162564
 30
0.0
 10
12.90939469394344
 20
14.31884262193405
 30
0.0
 10
13.13950997418967
 20
12.06211280903469
 30
0.0
 10
13.40742713804815
 20
8.839193415855488
 30
0.0
 10
13.48088116544287
 20
7.855720357764166
 30
0.0
 10
13.54452724894811
 20
6.877002003390639
 30
0.0
  0
SPLINE
  5
103C
330
FB2
100
AcDbEntity
  8
0
100
AcDbSpline
210
0.0
220
0.0
230
1.0
 70
     8
 71
     3
 72
    22
 73
    18
 74
     0
 42
0.000000001
 43
0.0000000001
 40
-0.8101565919296344
 40
-0.8101565919296344
 40
-0.8101565919296344
 40
-0.8101565919296344
 40
-0.5017890958454895
 40
-0.5017890958454895
 40
0.2838776542524175
 40
0.2838776542524175
 40
1.069544404350324
 40
1.069544404350324
 40
1.855211154448231
 40
1.855211154448231
 40
2.640877904546138
 40
2.640877904546138
 40
3.426544654644045
 40
3.426544654644045
 40
4.212211404741951
 40
4.212211404741951
 40
4.897564219222681
 40
4.897564219222681
 40
4.897564219222681
 40
4.897564219222681
 10
-2.615458160348254
 20
-10.13369999217078
 30
0.0
 10
-3.397954778040168
 20
-10.51895465230911
 30
0.0
 10
-4.178680419436275
 20
-10.91397056014624
 30
0.0
 10
-6.942944179417445
 20
-12.34636719166137
 30
0.0
 10
-8.917791199888593
 20
-13.43165141448009
 30
0.0
 10
-12.8531665272874
 20
-15.68114158818151
 30
0.0
 10
-14.8136948342151
 20
-16.84534753906422
 30
0.0
 10
-18.72666155574499
 20
-19.21834922050778
 30
0.0
 10
-20.67909997034722
 20
-20.42714495106864
 30
0.0
 10
-24.58211572844419
 20
-22.85499424348264
 30
0.0
 10
-26.53269307193895
 20
-24.07404780533579
 30
0.0
 10
-30.43821550903897
 20
-26.48808081194858
 30
0.0
 10
-32.39316060264423
 20
-27.68306025670819
 30
0.0
 10
-36.31364736118328
 20
-30.01461308074807
 30
0.0
 10
-38.27918902611706
 20
-31.15118646002832
 30
0.0
 10
-41.97506324321866
 20
-33.19239790357319
 30
0.0
 10
-43.70338467448252
 20
-34.10812084195059
 30
0.0
 10
-45.44017498038019
 20
-34.97716513012475
 30
0.0
  0
SPLINE
  5
103D
330
FB2
100
AcDbEntity
  8
0
100
AcDbSpline
210
0.0
220
0.0
230
1.0
 70
     8
 71
     3
 72
    22
 73
    18
 74
     0
 42
0.000000001
 43
0.0000000001
 40
-0.8101565919296344
 40
-0.8101565919296344
 40
-0.8101565919296344
 40
-0.8101565919296344
 40
-0.5017890958454895
 40
-0.5017890958454895
 40
0.2838776542524175
 40
0.2838776542524175
 40
1.069544404350324
 40
1.069544404350324
 40
1.855211154448231
 40
1.855211154448231
 40
2.640877904546138
 40
2.640877904546138
 40
3.426544654644045
 40
3.426544654644045
 40
4.212211404741951
 40
4.212211404741951
 40
4.897564219222681
 40
4.897564219222681
 40
4.897564219222681
 40
4.897564219222681
 10
7.468312547311919
 20
7.331903205356922
 30
0.0
 10
7.410704561073302
 20
8.202192484723731
 30
0.0
 10
7.362435551462382
 20
9.075828677478261
 30
0.0
 10
7.220795542663434
 20
12.18594963214385
 30
0.0
 10
7.173255739718378
 20
14.43885943187174
 30
0.0
 10
7.153683712013969
 20
18.97173952568126
 30
0.0
 10
7.181651487254603
 20
21.2517098197629
 30
0.0
 10
7.280247865849025
 20
25.82693924549742
 30
0.0
 10
7.350876469202809
 20
28.12219837715032
 30
0.0
 10
7.501947753950983
 20
32.71623382124495
 30
0.0
 10
7.582390435345365
 20
35.01501013368667
 30
0.0
 10
7.720243126102208
 20
39.60430828257647
 30
0.0
 10
7.777653135464661
 20
41.89483011902454
 30
0.0
 10
7.836593732085086
 20
46.4558476591446
 30
0.0
 10
7.838124319343067
 20
48.72634336281659
 30
0.0
 10
7.757928175403345
 20
52.94767004579563
 30
0.0
 10
7.686806787237041
 20
54.90230178036618
 30
0.0
 10
7.571026064863488
 20
56.8409284504095
 30
0.0
  0
ELLIPSE
  5
103E
330
FB2
100
AcDbEntity
  8
0
100
AcDbEllipse
 10
-13.79211776709524
 20
-48.37538117856893
 30
0.0
 11
-6.0
 21
0.0000000000000003
 31
0.0
210
0.0
220
0.0
230
1.0
 40
0.5773502691896259
 41
0.0
 42
6.283185307179586
  0
ELLIPSE
  5
103F
330
FB2
100
AcDbEntity
  8
0
100
AcDbEllipse
 10
-13.79211776709524
 20
-50.00837434042438
 30
0.0
 11
6.0
 21
0.0000000000000003
 31
0.0
210
0.0
220
0.0
230
1.0
 40
0.5773502691896259
 41
0.2379411248302087
 42
2.903651528759584
  0
LINE
  5
1040
330
FB2
100
AcDbEntity
  8
0
100
AcDbLine
 10
63.98962816355552
 20
47.15471879009645
 30
0.0
 11
8.835299230979387
 21
78.99808544623372
 31
0.0
  0
LINE
  5
1041
330
FB2
100
AcDbEntity
  8
0
100
AcDbLine
 10
7.421085668606943
 20
78.18158886530913
 30
0.0
 11
62.57541460118307
 21
46.33822220917187
 31
0.0
  0
LINE
  5
1042
330
FB2
100
AcDbEntity
  8
0
100
AcDbLine
 10
67.86249835037208
 20
40.03837875561354
 30
0.0
 11
66.99499230552948
 21
29.08963937512823
 31
0.0
  0
LINE
  5
1043
330
FB2
100
AcDbEntity
  8
0
100
AcDbLine
 10
3.548215481775982
 20
75.53725412061635
 30
0.0
 11
4.415721526584737
 21
63.58680504312541
 31
0.0
  0
LINE
  5
1044
330
FB2
100
AcDbEntity
  8
0
100
AcDbLine
 10
66.44828478799962
 20
39.22188217468897
 30
0.0
 11
65.58077874315704
 21
28.27314279420365
 31
0.0
  0
ELLIPSE
  5
1045
330
FB2
100
AcDbEntity
  8
0
100
AcDbEllipse
 10
25.80586197948816
 20
24.29281452407918
 30
0.0
 11
1.249999999995939
 21
-2.16506350946344
 31
0.0
210
0.0
220
0.0
230
0.9999999999999998
 40
0.5773502691909338
 41
3.742856870253664
 42
5.681921090517269
  0
ELLIPSE
  5
1046
330
FB2
100
AcDbEntity
  8
0
100
AcDbEllipse
 10
18.7347941676162
 20
16.12784871480938
 30
0.0
 11
1.249999999995939
 21
-2.16506350946344
 31
0.0
210
0.0
220
0.0
230
1.0
 40
0.5773502691909337
 41
3.742856870253662
 42
5.68192109051727
  0
ELLIPSE
  5
1047
330
FB2
100
AcDbEntity
  8
0
100
AcDbEllipse
 10
11.6637263557572
 20
69.20012647511154
 30
0.0
 11
1.249999999995939
 21
-2.16506350946344
 31
0.0
210
0.0
220
0.0
230
1.0
 40
0.5773502691909337
 41
3.74285687025366
 42
5.681921090517272
  0
ELLIPSE
  5
1048
330
FB2
100
AcDbEntity
  8
0
100
AcDbEllipse
 10
22.27032807355542
 20
50.82895340423212
 30
0.0
 11
1.249999999995939
 21
-2.16506350946344
 31
0.0
210
0.0
220
0.0
230
1.0
 40
0.5773502691909337
 41
3.74285687025366
 42
5.681921090517271
  0
ELLIPSE
  5
1049
330
FB2
100
AcDbEntity
  8
0
100
AcDbEllipse
 10
15.19926026168995
 20
42.66398759495859
 30
0.0
 11
1.249999999995939
 21
-2.16506350946344
 31
0.0
210
0.0
220
0.0
230
1.0
 40
0.5773502691909337
 41
3.74285687025366
 42
5.681921090517271
  0
ELLIPSE
  5
104A
330
FB2
100
AcDbEntity
  8
0
100
AcDbEllipse
 10
24.3916484171444
 20
23.47631794316839
 30
0.0
 11
-1.249999999995937
 21
2.165063509463442
 31
0.0
210
0.0
220
0.0
230
1.0
 40
0.5773502691908769
 41
0.0
 42
6.283185307179586
  0
ELLIPSE
  5
104B
330
FB2
100
AcDbEntity
  8
0
100
AcDbEllipse
 10
17.32058060527244
 20
15.3113521338986
 30
0.0
 11
-1.249999999995937
 21
2.165063509463442
 31
0.0
210
0.0
220
0.0
230
1.0
 40
0.5773502691908769
 41
0.0
 42
6.283185307179586
  0
ELLIPSE
  5
104C
330
FB2
100
AcDbEntity
  8
0
100
AcDbEllipse
 10
10.24951279341345
 20
68.38362989420075
 30
0.0
 11
-1.249999999995937
 21
2.165063509463442
 31
0.0
210
0.0
220
0.0
230
1.0
 40
0.5773502691908769
 41
0.0
 42
6.283185307179586
  0
ELLIPSE
  5
104D
330
FB2
100
AcDbEntity
  8
0
100
AcDbEllipse
 10
20.85611451121167
 20
50.01245682332133
 30
0.0
 11
-1.249999999995937
 21
2.165063509463442
 31
0.0
210
0.0
220
0.0
230
1.0
 40
0.5773502691908769
 41
0.0
 42
6.283185307179586
  0
ELLIPSE
  5
104E
330
FB2
100
AcDbEntity
  8
0
100
AcDbEllipse
 10
13.78504669934619
 20
41.8474910140478
 30
0.0
 11
-1.249999999995937
 21
2.165063509463442
 31
0.0
210
0.0
220
0.0
230
1.0
 40
0.5773502691908769
 41
0.0
 42
6.283185307179586
  0
ELLIPSE
  5
104F
330
FB2
100
AcDbEntity
  8
0
100
AcDbEllipse
 10
36.41246369728637
 20
1.839158548561128
 30
0.0
 11
-2.99999999998989
 21
5.19615242271247
 31
0.0
210
0.0
220
0.0
230
1.0
 40
0.5773502691910675
 41
0.237941124825662
 42
2.903651528766376
  0
ELLIPSE
  5
1050
330
FB2
100
AcDbEntity
  8
0
100
AcDbEllipse
 10
36.41246369728636
 20
34.49902178566272
 30
0.0
 11
2.999999999990557
 21
-5.196152422712083
 31
0.0
210
0.0
220
0.0
230
0.9999999999999998
 40
0.5773502691908769
 41
3.926990816988539
 42
6.045244182355766
  0
ELLIPSE
  5
1051
330
FB2
100
AcDbEntity
  8
0
100
AcDbEllipse
 10
36.41246369728637
 20
50.82895340422468
 30
0.0
 11
-2.999999999985323
 21
5.196152422704563
 31
0.0
210
0.0
220
0.0
230
1.0
 40
0.5773502691910673
 41
0.237941124826033
 42
0.7853981633990298
  0
LINE
  5
1052
330
FB2
100
AcDbEntity
  8
0
100
AcDbLine
 10
32.16982301002389
 20
53.2784431469304
 30
0.0
 11
32.16982301003034
 21
36.94851152836471
 31
0.0
  0
ELLIPSE
  5
1053
330
FB2
100
AcDbEntity
  8
0
100
AcDbEllipse
 10
34.99825013494262
 20
1.022661967650342
 30
0.0
 11
-2.999999999990248
 21
5.196152422712261
 31
0.0
210
0.0
220
0.0
230
1.0
 40
0.5773502691908769
 41
0.0
 42
6.283185307179586
  0
ELLIPSE
  5
1054
330
FB2
100
AcDbEntity
  8
0
100
AcDbEllipse
 10
34.99825013494261
 20
50.0124568233139
 30
0.0
 11
-2.999999999985683
 21
5.196152422704354
 31
0.0
210
0.0
220
0.0
230
1.0
 40
0.5773502691908768
 41
3.92699081698878
 42
7.068583470578574
  0
LINE
  5
1055
330
FB2
100
AcDbEntity
  8
0
100
AcDbLine
 10
32.16982301002389
 20
53.2784431469304
 30
0.0
 11
30.75560944777726
 21
52.46194656607571
 31
0.0
  0
LINE
  5
1056
330
FB2
100
AcDbEntity
  8
0
100
AcDbLine
 10
39.24089082201975
 20
47.56296708051606
 30
0.0
 11
39.24089082199555
 21
31.23303546193268
 31
0.0
  0
ELLIPSE
  5
1057
330
FB2
100
AcDbEntity
  8
0
100
AcDbEllipse
 10
34.9982501349426
 20
33.68252520475194
 30
0.0
 11
2.999999999990248
 21
-5.196152422712261
 31
0.0
210
0.0
220
0.0
230
1.0
 40
0.5773502691908769
 41
3.92699081698878
 42
7.068583470578573
  0
LINE
  5
1058
330
FB2
100
AcDbEntity
  8
0
100
AcDbLine
 10
32.16982301003034
 20
36.94851152836471
 30
0.0
 11
30.75560944775306
 21
36.13201494749231
 31
0.0
  0
LINE
  5
1059
330
FB2
100
AcDbEntity
  8
0
100
AcDbLine
 10
30.75560944775306
 20
36.13201494749231
 30
0.0
 11
30.75560944777726
 21
52.46194656607571
 31
0.0
  0
ELLIPSE
  5
105A
330
FB2
100
AcDbEntity
  8
0
100
AcDbEllipse
 10
57.62566713288279
 20
18.16909016712681
 30
0.0
 11
1.249999999995939
 21
-2.16506350946344
 31
0.0
210
0.0
220
0.0
230
1.0
 40
0.5773502691909337
 41
3.742856870253662
 42
5.681921090517263
  0
ELLIPSE
  5
105B
330
FB2
100
AcDbEntity
  8
0
100
AcDbEllipse
 10
50.55459932101732
 20
34.49902178567761
 30
0.0
 11
1.249999999995939
 21
-2.16506350946344
 31
0.0
210
0.0
220
0.0
230
0.9999999999999998
 40
0.5773502691909338
 41
3.74285687025366
 42
5.681921090517263
  0
ELLIPSE
  5
105C
330
FB2
100
AcDbEntity
  8
0
100
AcDbEllipse
 10
61.16120103881555
 20
40.62274614264112
 30
0.0
 11
1.249999999995939
 21
-2.16506350946344
 31
0.0
210
0.0
220
0.0
230
1.0
 40
0.5773502691909337
 41
3.74285687025366
 42
5.681921090517263
  0
ELLIPSE
  5
105D
330
FB2
100
AcDbEntity
  8
0
100
AcDbEllipse
 10
54.09013322695655
 20
-4.284565808391251
 30
0.0
 11
1.249999999995939
 21
-2.16506350946344
 31
0.0
210
0.0
220
0.0
230
1.0
 40
0.5773502691909337
 41
3.74285687025366
 42
5.681921090517269
  0
ELLIPSE
  5
105E
330
FB2
100
AcDbEntity
  8
0
100
AcDbEllipse
 10
47.01906541508458
 20
12.04536581016329
 30
0.0
 11
1.249999999995939
 21
-2.16506350946344
 31
0.0
210
0.0
220
0.0
230
0.9999999999999998
 40
0.5773502691909338
 41
3.74285687025366
 42
5.681921090517263
  0
ELLIPSE
  5
105F
330
FB2
100
AcDbEntity
  8
0
100
AcDbEllipse
 10
56.21145357053904
 20
17.35259358621603
 30
0.0
 11
1.249999999995937
 21
-2.165063509463442
 31
0.0
210
0.0
220
0.0
230
1.0
 40
0.5773502691908769
 41
0.0
 42
6.283185307179586
  0
ELLIPSE
  5
1060
330
FB2
100
AcDbEntity
  8
0
100
AcDbEllipse
 10
49.14038575867357
 20
33.68252520476681
 30
0.0
 11
1.249999999995937
 21
-2.165063509463442
 31
0.0
210
0.0
220
0.0
230
1.0
 40
0.5773502691908769
 41
0.0
 42
6.283185307179586
  0
ELLIPSE
  5
1061
330
FB2
100
AcDbEntity
  8
0
100
AcDbEllipse
 10
59.74698747647178
 20
39.80624956173034
 30
0.0
 11
1.249999999995937
 21
-2.165063509463442
 31
0.0
210
0.0
220
0.0
230
1.0
 40
0.5773502691908769
 41
0.0
 42
6.283185307179586
  0
ELLIPSE
  5
1062
330
FB2
100
AcDbEntity
  8
0
100
AcDbEllipse
 10
52.67591966461278
 20
-5.101062389302038
 30
0.0
 11
1.249999999995937
 21
-2.165063509463442
 31
0.0
210
0.0
220
0.0
230
1.0
 40
0.5773502691908769
 41
0.0
 42
6.283185307179586
  0
ELLIPSE
  5
1063
330
FB2
100
AcDbEntity
  8
0
100
AcDbEllipse
 10
45.60485185274083
 20
11.2288692292525
 30
0.0
 11
1.249999999995937
 21
-2.165063509463442
 31
0.0
210
0.0
220
0.0
230
1.0
 40
0.5773502691908769
 41
0.0
 42
6.283185307179586
  0
SPLINE
  5
1064
330
FB2
100
AcDbEntity
  8
0
100
AcDbSpline
210
0.0
220
0.0
230
1.0
 70
     8
 71
     3
 72
    22
 73
    18
 74
     0
 42
0.000000001
 43
0.0000000001
 40
-1.514085860071498
 40
-1.514085860071498
 40
-1.514085860071498
 40
-1.514085860071498
 40
-0.8262310910668336
 40
-0.8262310910668336
 40
-0.038066519928351
 40
-0.038066519928351
 40
0.7500980512101317
 40
0.7500980512101317
 40
1.538262622348614
 40
1.538262622348614
 40
2.326427193487096
 40
2.326427193487096
 40
3.114591764625579
 40
3.114591764625579
 40
3.902756335764062
 40
3.902756335764062
 40
4.188953069474111
 40
4.188953069474111
 40
4.188953069474111
 40
4.188953069474111
 10
64.93046783256341
 20
25.35581658502381
 30
0.0
 10
64.78835133362522
 20
23.55175629018842
 30
0.0
 10
64.60393499820845
 20
21.70476601954451
 30
0.0
 10
64.13967854267082
 20
17.67188778406793
 30
0.0
 10
63.84984464509606
 20
15.47585716479387
 30
0.0
 10
63.21749713522186
 20
11.0303314434722
 30
0.0
 10
62.8749835229224
 20
8.780836341424581
 30
0.0
 10
62.16845748829708
 20
4.260027060207924
 30
0.0
 10
61.80444506597119
 20
1.988712881038896
 30
0.0
 10
61.08610231599116
 20
-2.544089148768415
 30
0.0
 10
60.73177198833704
 20
-4.805576999406683
 30
0.0
 10
60.06397433239879
 20
-9.287080966500321
 30
0.0
 10
59.75050700411468
 20
-11.50709708295567
 30
0.0
 10
59.19561625161467
 20
-15.87401217603131
 30
0.0
 10
58.95419282739879
 20
-18.02091115265157
 30
0.0
 10
58.69545801184184
 20
-20.87598591212067
 30
0.0
 10
58.63333955285125
 20
-21.62963625209269
 30
0.0
 10
58.57877288280447
 20
-22.37562230435918
 30
0.0
  0
SPLINE
  5
1065
330
FB2
100
AcDbEntity
  8
0
100
AcDbSpline
210
0.0
220
0.0
230
1.0
 70
     8
 71
     3
 72
    22
 73
    18
 74
     0
 42
0.000000001
 43
0.0000000001
 40
-1.514085860071498
 40
-1.514085860071498
 40
-1.514085860071498
 40
-1.514085860071498
 40
-0.8262310910668336
 40
-0.8262310910668336
 40
-0.0380665199283512
 40
-0.0380665199283512
 40
0.7500980512101313
 40
0.7500980512101313
 40
1.538262622348613
 40
1.538262622348613
 40
2.326427193487096
 40
2.326427193487096
 40
3.114591764625578
 40
3.114591764625578
 40
3.902756335764061
 40
3.902756335764061
 40
4.188953069474111
 40
4.188953069474111
 40
4.188953069474111
 40
4.188953069474111
 10
10.50645261991202
 20
-68.90934291511169
 30
0.0
 10
11.99775641572842
 20
-67.88423626932029
 30
0.0
 10
13.50508874293971
 20
-66.80103190265819
 30
0.0
 10
16.7655355174617
 20
-64.38253490056093
 30
0.0
 10
18.52243687245354
 20
-63.03351607275025
 30
0.0
 10
22.05620132535712
 20
-60.26312420452628
 30
0.0
 10
23.83306442326887
 20
-58.84175116411299
 30
0.0
 10
27.39493708915345
 20
-55.96947702909162
 30
0.0
 10
29.17994665712629
 20
-54.51857593448355
 30
0.0
 10
32.74629699027427
 20
-51.63007184948039
 30
0.0
 10
34.52763775544941
 20
-50.19246885908531
 30
0.0
 10
38.07483521014318
 20
-47.37338714091595
 30
0.0
 10
39.84069189966181
 20
-45.99190841314167
 30
0.0
 10
43.34510593018378
 20
-43.32790137862172
 30
0.0
 10
45.0836632711871
 20
-42.04537307187607
 30
0.0
 10
47.42686313481148
 20
-40.39376476903139
 30
0.0
 10
48.04848424530243
 20
-39.96314343551713
 30
0.0
 10
48.66724378241037
 20
-39.54289428692498
 30
0.0
  0
SPLINE
  5
1066
330
FB2
100
AcDbEntity
  8
0
100
AcDbSpline
210
0.0
220
0.0
230
1.0
 70
     8
 71
     3
 72
    10
 73
     6
 74
     0
 42
0.000000001
 43
0.0000000001
 40
0.0
 40
0.0
 40
0.0
 40
0.0
 40
4.19728995586037
 40
4.19728995586037
 40
5.724523870192172
 40
5.724523870192172
 40
5.724523870192172
 40
5.724523870192172
 10
64.93142635836358
 20
25.35769265270328
 30
0.0
 10
64.09102025117036
 20
14.40410690572071
 30
0.0
 10
62.21639426083983
 20
2.870845484243029
 30
0.0
 10
60.37160032779304
 20
-12.32994829706376
 30
0.0
 10
59.9488688537772
 20
-16.32973705437243
 30
0.0
 10
59.66674913592088
 20
-20.23594634530718
 30
0.0
  0
SPLINE
  5
1067
330
FB2
100
AcDbEntity
  8
0
100
AcDbSpline
210
0.0
220
0.0
230
1.0
 70
     8
 71
     3
 72
    10
 73
     6
 74
     0
 42
0.000000001
 43
0.0000000001
 40
0.0
 40
0.0
 40
0.0
 40
0.0
 40
3.926283962520208
 40
3.926283962520208
 40
5.723830217802379
 40
5.723830217802379
 40
5.723830217802379
 40
5.723830217802379
 10
47.35821817255342
 20
-41.55494734037178
 30
0.0
 10
39.02400526436685
 20
-47.20419610579869
 30
0.0
 10
30.58638731318962
 20
-53.99965885752067
 30
0.0
 10
18.25991759491797
 20
-63.38477359369543
 30
0.0
 10
14.38789322286841
 20
-66.25390456399476
 30
0.0
 10
10.50530716054245
 20
-68.91111105664458
 30
0.0
  0
LINE
  5
1068
330
FB2
100
AcDbEntity
  8
0
100
AcDbLine
 10
55.9177024271812
 20
-24.99929896077144
 30
0.0
 11
62.2747998195652
 21
22.73746645522534
 31
0.0
  0
LINE
  5
1069
330
FB2
100
AcDbEntity
  8
0
100
AcDbLine
 10
60.53684201199708
 20
23.31589905957933
 30
0.0
 11
54.17974461961313
 21
-24.42086635641746
 31
0.0
  0
LINE
  5
106A
330
FB2
100
AcDbEntity
  8
0
100
AcDbLine
 10
10.07626010829542
 20
-64.08439257705009
 30
0.0
 11
48.23896295684275
 21
-34.71060203300073
 31
0.0
  0
LINE
  5
106B
330
FB2
100
AcDbEntity
  8
0
100
AcDbLine
 10
49.60887919037453
 20
-35.92650134288265
 30
0.0
 11
11.44617634182723
 21
-65.30029188693205
 31
0.0
  0
LINE
  5
106C
330
FB2
100
AcDbEntity
  8
0
100
AcDbLine
 10
-5.06822304353717
 20
-4.358661649625044
 30
0.0
 11
-47.47674383193594
 21
-31.28112806317105
 31
0.0
  0
LINE
  5
106D
330
FB2
100
AcDbEntity
  8
0
100
AcDbLine
 10
-46.10682759840414
 20
-31.64707176568275
 30
0.0
 11
-3.698306810005389
 21
-4.724605352136732
 31
0.0
  0
LINE
  5
106E
330
FB2
100
AcDbEntity
  8
0
100
AcDbLine
 10
4.353754305271633
 20
55.7532198709018
 30
0.0
 11
2.242474852741032
 21
5.565130324405052
 31
0.0
  0
LINE
  5
106F
330
FB2
100
AcDbEntity
  8
0
100
AcDbLine
 10
1.240600193244283
 20
6.568540732442507
 30
0.0
 11
3.351879645774853
 21
56.75663027893929
 31
0.0
  0
ENDBLK
  5
FB4
330
FB2
100
AcDbEntity
  8
0
100
AcDbBlockEnd
  0
ENDSEC
  0
SECTION
  2
ENTITIES
  0
INSERT
  5
1070
330
1F
100
AcDbEntity
  8
0
100
AcDbBlockReference
  2
ABR100-Front
 10
0.0
 20
0.0
 30
0.0
  0
INSERT
  5
1071
330
1F
100
AcDbEntity
  8
0
100
AcDbBlockReference
  2
ABR100-Left
 10
75.37706554353508
 20
0.0
 30
0.0
  0
INSERT
  5
1072
330
1F
100
AcDbEntity
  8
0
100
AcDbBlockReference
  2
ABR100-Right
 10
-75.37706554360616
 20
0.0
 30
0.0
  0
INSERT
  5
1073
330
1F
100
AcDbEntity
  8
0
100
AcDbBlockReference
  2
ABR100-Top
 10
0.0
 20
-30.90000000000038
 30
0.0
  0
INSERT
  5
1074
330
1F
100
AcDbEntity
  8
0
100
AcDbBlockReference
  2
ABR100-Bottom
 10
0.0
 20
133.9000000001899
 30
0.0
  0
INSERT
  5
1075
330
1F
100
AcDbEntity
  8
0
100
AcDbBlockReference
  2
ABR100-ISO
 10
139.3737647748545
 20
-109.8980854462341
 30
0.0
  0
MTEXT
  5
1076
330
1F
100
AcDbEntity
  8
0
100
AcDbMText
 10
0.0
 20
-164.8000000000008
 30
0.0
 40
10.30000000000012
 41
0.0
 71
     5
 72
     5
  1
ABR100
 73
     1
 44
1.0
1001
ACAD
1000
MTEXTBEGIN
1070
    73
1070
     1
1070
    44
1040
1.0
1070
    74
1070
     0
1000
MTEXTEND
  0
ENDSEC
  0
SECTION
  2
OBJECTS
  0
DICTIONARY
  5
C
330
0
100
AcDbDictionary
281
     1
  3
ACAD_CIP_PREVIOUS_PRODUCT_INFO
350
216
  3
ACAD_COLOR
350
6B
  3
ACAD_DETAILVIEWSTYLE
350
21B
  3
ACAD_GROUP
350
D
  3
ACAD_LAYOUT
350
1A
  3
ACAD_MATERIAL
350
6A
  3
ACAD_MLEADERSTYLE
350
12D
  3
ACAD_MLINESTYLE
350
17
  3
ACAD_PLOTSETTINGS
350
19
  3
ACAD_PLOTSTYLENAME
350
E
  3
ACAD_SCALELIST
350
10C
  3
ACAD_SECTIONVIEWSTYLE
350
219
  3
ACAD_TABLESTYLE
350
7E
  3
ACAD_VISUALSTYLE
350
EF
  3
ACDB_RECOMPOSE_DATA
350
1177
  3
AcDbVariableDictionary
350
5E
  3
DWGPROPS
350
1178
  0
DICTIONARY
  5
10C7
330
8
100
AcDbDictionary
280
     1
281
     1
  0
DICTIONARY
  5
1FF
330
2
100
AcDbDictionary
280
     1
281
     1
  3
ACAD_LAYERSTATES
360
200
  0
DICTIONARY
  5
13C
330
10
100
AcDbDictionary
280
     1
281
     1
  0
DICTIONARY
  5
1CE
330
1F
100
AcDbDictionary
280
     1
281
     1
  3
ACAD_LAYOUTSELFREF
360
10CF
  0
DICTIONARY
  5
107A
330
D2
100
AcDbDictionary
280
     1
281
     1
  3
ACAD_LAYOUTSELFREF
360
10D8
  0
DICTIONARY
  5
107C
330
D6
100
AcDbDictionary
280
     1
281
     1
  3
ACAD_LAYOUTSELFREF
360
10DB
  0
XRECORD
  5
216
102
{ACAD_REACTORS
330
C
102
}
330
C
100
AcDbXrecord
280
     1
300
ACD
300
2021
300

  0
DICTIONARY
  5
6B
102
{ACAD_REACTORS
330
C
102
}
330
C
100
AcDbDictionary
281
     1
  0
DICTIONARY
  5
21B
102
{ACAD_REACTORS
330
C
102
}
330
C
100
AcDbDictionary
281
     1
  3
Metric50
350
21C
  0
DICTIONARY
  5
D
102
{ACAD_REACTORS
330
C
102
}
330
C
100
AcDbDictionary
281
     1
  0
DICTIONARY
  5
1A
102
{ACAD_REACTORS
330
C
102
}
330
C
100
AcDbDictionary
281
     1
  3
Layout1
350
D3
  3
Layout2
350
D7
  3
Model
350
22
  0
DICTIONARY
  5
6A
102
{ACAD_REACTORS
330
C
102
}
330
C
100
AcDbDictionary
281
     1
  3
ByBlock
350
ED
  3
ByLayer
350
EC
  3
Global
350
EE
  0
DICTIONARY
  5
12D
102
{ACAD_REACTORS
330
C
102
}
330
C
100
AcDbDictionary
281
     1
  3
Standard
350
12E
  0
DICTIONARY
  5
17
102
{ACAD_REACTORS
330
C
102
}
330
C
100
AcDbDictionary
281
     1
  3
Standard
350
18
  0
DICTIONARY
  5
19
102
{ACAD_REACTORS
330
C
102
}
330
C
100
AcDbDictionary
281
     1
  0
ACDBDICTIONARYWDFLT
  5
E
102
{ACAD_REACTORS
330
C
102
}
330
C
100
AcDbDictionary
281
     1
  3
Normal
350
F
100
AcDbDictionaryWithDefault
340
F
  0
DICTIONARY
  5
10C
102
{ACAD_REACTORS
330
C
102
}
330
C
100
AcDbDictionary
281
     1
  3
A0
350
10D
  3
A1
350
1BE
  3
A2
350
1BF
  3
A3
350
1C0
  3
A4
350
1C1
  3
A5
350
1C2
  3
A6
350
1C3
  3
A7
350
1C4
  3
A8
350
1C5
  3
A9
350
1C6
  3
B0
350
1C7
  3
B1
350
1C8
  3
B2
350
1C9
  3
B3
350
1CA
  3
B4
350
1CB
  3
B5
350
1CC
  3
B6
350
1CD
  0
DICTIONARY
  5
219
102
{ACAD_REACTORS
330
C
102
}
330
C
100
AcDbDictionary
281
     1
  3
Metric50
350
21A
  0
DICTIONARY
  5
7E
102
{ACAD_REACTORS
330
C
102
}
330
C
100
AcDbDictionary
281
     1
  3
Standard
350
7F
  0
DICTIONARY
  5
EF
102
{ACAD_REACTORS
330
C
102
}
330
C
100
AcDbDictionary
281
     1
  3
2dWireframe
350
F5
  3
Basic
350
F4
  3
Brighten
350
FB
  3
ColorChange
350
FF
  3
Conceptual
350
F8
  3
Dim
350
FA
  3
EdgeColorOff
350
1E6
  3
Facepattern
350
FE
  3
Flat
350
F0
  3
FlatWithEdges
350
F1
  3
Gouraud
350
F2
  3
GouraudWithEdges
350
F3
  3
Hidden
350
F7
  3
JitterOff
350
1E4
  3
Linepattern
350
FD
  3
OverhangOff
350
1E5
  3
Realistic
350
F9
  3
Shaded
350
1F3
  3
Shaded with edges
350
1F2
  3
Shades of Gray
350
1EF
  3
Sketchy
350
1F0
  3
Thicken
350
FC
  3
Wireframe
350
F6
  3
X-Ray
350
1F1
  0
XRECORD
  5
1177
102
{ACAD_REACTORS
330
C
102
}
330
C
100
AcDbXrecord
280
     1
 90
        1
330
7F
  0
DICTIONARY
  5
5E
102
{ACAD_REACTORS
330
C
102
}
330
C
100
AcDbDictionary
281
     1
  3
CANNOSCALE
350
146
  3
CENTEREXE
350
259
  3
CENTERLTYPEFILE
350
25A
  3
CMLEADERSTYLE
350
145
  3
CTABLESTYLE
350
84
  3
CVIEWDETAILSTYLE
350
227
  3
CVIEWSECTIONSTYLE
350
228
  3
DIMASSOC
350
5F
  3
HIDETEXT
350
63
  3
INDEXCTL
350
1124
  3
LAYEREVAL
350
1AE
  3
LAYERNOTIFY
350
1AF
  3
LIGHTINGUNITS
350
1122
  3
MSLTSCALE
350
1121
  3
PSOLHEIGHT
350
1174
  3
PSOLWIDTH
350
1173
  3
SORTENTS
350
1123
  3
XCLIPFRAME
350
1175
  0
XRECORD
  5
1178
102
{ACAD_REACTORS
330
C
102
}
330
C
100
AcDbXrecord
280
     1
  1
DWGPROPS COOKIE
  2

  3

  4

  6

  7

  8
tronnguyen
  9

300
=
301
=
302
=
303
=
304
=
305
=
306
=
307
=
308
=
309
=
 40
0.0034375
 41
2460367.705740741
 42
2460367.710497685
  1

 90
        0
  0
DICTIONARY
  5
200
102
{ACAD_REACTORS
330
1FF
102
}
330
1FF
100
AcDbDictionary
281
     1
  0
XRECORD
  5
10CF
102
{ACAD_REACTORS
330
1CE
102
}
330
1CE
100
AcDbXrecord
280
     1
340
1F
  0
XRECORD
  5
10D8
102
{ACAD_REACTORS
330
107A
102
}
330
107A
100
AcDbXrecord
280
     1
340
D2
  0
XRECORD
  5
10DB
102
{ACAD_REACTORS
330
107C
102
}
330
107C
100
AcDbXrecord
280
     1
340
D6
  0
ACDBDETAILVIEWSTYLE
  5
21C
102
{ACAD_XDICTIONARY
360
11B7
102
}
102
{ACAD_REACTORS
330
21B
102
}
330
21B
100
AcDbModelDocViewStyle
 70
     0
  3
Metric50
290
     0
100
AcDbDetailViewStyle
 70
     0
 71
     0
 90
        3
 71
     1
340
11
 40
5.0
340
0
 40
5.0
300

 40
0.0
280
     1
 71
     2
340
16
 90
       25
 71
     3
340
11
 40
5.0
 90
        0
 40
15.0
 90
        1
300
%<\AcVar ViewDetailId>% (%<\AcVar ViewScale \f "%sn">%)
 71
     4
340
16
 90
       25
340
16
 90
       25
280
     0
  0
LAYOUT
  5
D3
102
{ACAD_XDICTIONARY
360
117C
102
}
102
{ACAD_REACTORS
330
1A
102
}
330
1A
100
AcDbPlotSettings
  1

  2
C:\Documents and Settings\basas\Application Data\Autodesk\AutoCAD 2005\R16.1\enu\plotters\Default Windows System Printer.pc3
  4

  6

 40
0.0
 41
0.0
 42
0.0
 43
0.0
 44
0.0
 45
0.0
 46
0.0
 47
0.0
 48
0.0
 49
0.0
140
0.0
141
0.0
142
1.0
143
1.0
 70
   688
 72
     0
 73
     0
 74
     5
  7

 75
    16
147
1.0
148
0.0
149
0.0
100
AcDbLayout
  1
Layout1
 70
     1
 71
     1
 10
0.0
 20
0.0
 11
12.0
 21
9.0
 12
0.0
 22
0.0
 32
0.0
 14
0.0
 24
0.0
 34
0.0
 15
0.0
 25
0.0
 35
0.0
146
0.0
 13
0.0
 23
0.0
 33
0.0
 16
1.0
 26
0.0
 36
0.0
 17
0.0
 27
1.0
 37
0.0
 76
     0
330
D2
  0
LAYOUT
  5
D7
102
{ACAD_XDICTIONARY
360
117E
102
}
102
{ACAD_REACTORS
330
1A
102
}
330
1A
100
AcDbPlotSettings
  1

  2
C:\Documents and Settings\basas\Application Data\Autodesk\AutoCAD 2005\R16.1\enu\plotters\Default Windows System Printer.pc3
  4

  6

 40
0.0
 41
0.0
 42
0.0
 43
0.0
 44
0.0
 45
0.0
 46
0.0
 47
0.0
 48
0.0
 49
0.0
140
0.0
141
0.0
142
1.0
143
1.0
 70
   688
 72
     0
 73
     0
 74
     5
  7

 75
    16
147
1.0
148
0.0
149
0.0
100
AcDbLayout
  1
Layout2
 70
     1
 71
     2
 10
0.0
 20
0.0
 11
12.0
 21
9.0
 12
0.0
 22
0.0
 32
0.0
 14
0.0
 24
0.0
 34
0.0
 15
0.0
 25
0.0
 35
0.0
146
0.0
 13
0.0
 23
0.0
 33
0.0
 16
1.0
 26
0.0
 36
0.0
 17
0.0
 27
1.0
 37
0.0
 76
     0
330
D6
  0
LAYOUT
  5
22
102
{ACAD_XDICTIONARY
360
1179
102
}
102
{ACAD_REACTORS
330
1A
102
}
330
1A
100
AcDbPlotSettings
  1

  2
none_device
  4
ISO_A4_(210.00_x_297.00_MM)
  6

 40
7.5
 41
20.0
 42
7.5
 43
20.0
 44
210.0
 45
297.0
 46
11.54999923706054
 47
-13.65000009536743
 48
0.0
 49
0.0
140
0.0
141
0.0
142
1.0
143
8.704084754739808
 70
 11952
 72
     1
 73
     0
 74
     0
  7

 75
     0
147
0.1148885871608098
148
0.0
149
0.0
100
AcDbLayout
  1
Model
 70
     1
 71
     0
 10
0.0
 20
0.0
 11
12.0
 21
9.0
 12
0.0
 22
0.0
 32
0.0
 14
0.0
 24
0.0
 34
0.0
 15
0.0
 25
0.0
 35
0.0
146
0.0
 13
0.0
 23
0.0
 33
0.0
 16
1.0
 26
0.0
 36
0.0
 17
0.0
 27
1.0
 37
0.0
 76
     0
330
1F
331
EA
1001
ACAD_PSEXT
1000
None
1000
None
1000
Not applicable
1000
The layout will not be plotted unless a new plotter configuration name is selected.
1070
     0
  0
MATERIAL
  5
ED
102
{ACAD_XDICTIONARY
360
1F9
102
}
102
{ACAD_REACTORS
330
6A
102
}
330
6A
100
AcDbMaterial
  1
ByBlock
  0
MATERIAL
  5
EC
102
{ACAD_XDICTIONARY
360
1F7
102
}
102
{ACAD_REACTORS
330
6A
102
}
330
6A
100
AcDbMaterial
  1
ByLayer
  0
MATERIAL
  5
EE
102
{ACAD_XDICTIONARY
360
173
102
}
102
{ACAD_REACTORS
330
6A
102
}
330
6A
100
AcDbMaterial
  1
Global
 43
0.0007999999797903
 43
0.0
 43
0.0
 43
0.0
 43
0.0
 43
0.0007999999797903
 43
0.0
 43
0.0
 43
0.0
 43
0.0
 43
1.0
 43
0.0
 43
0.0
 43
0.0
 43
0.0
 43
1.0
 49
0.0007999999797903
 49
0.0
 49
0.0
 49
0.0
 49
0.0
 49
0.0007999999797903
 49
0.0
 49
0.0
 49
0.0
 49
0.0
 49
1.0
 49
0.0
 49
0.0
 49
0.0
 49
0.0
 49
1.0
142
0.0007999999797903
142
0.0
142
0.0
142
0.0
142
0.0
142
0.0007999999797903
142
0.0
142
0.0
142
0.0
142
0.0
142
1.0
142
0.0
142
0.0
142
0.0
142
0.0
142
1.0
144
0.0007999999797903
144
0.0
144
0.0
144
0.0
144
0.0
144
0.0007999999797903
144
0.0
144
0.0
144
0.0
144
0.0
144
1.0
144
0.0
144
0.0
144
0.0
144
0.0
144
1.0
1001
ACAD
1070
    -1
1070
     3
1070
     0
1000

1071
        0
1070
     0
  0
MLEADERSTYLE
  5
12E
102
{ACAD_XDICTIONARY
360
11A3
102
}
102
{ACAD_REACTORS
330
12D
102
}
330
12D
100
AcDbMLeaderStyle
170
     2
171
     1
172
     0
 90
        2
 40
0.0
 41
0.0
173
     1
 91
-1056964608
340
14
 92
       -2
290
     1
 42
2.0
291
     1
 43
8.0
  3
Standard
 44
4.0
300

342
11
174
     1
178
     1
175
     1
176
     0
 93
-1056964608
 45
4.0
292
     0
297
     0
 46
4.0
 94
-1056964608
 47
1.0
 49
1.0
140
1.0
293
     1
141
0.0
294
     1
177
     0
142
1.0
295
     0
296
     0
143
3.75
1001
ACAD_MLEADERVER
1070
     2
  0
MLINESTYLE
  5
18
102
{ACAD_REACTORS
330
17
102
}
330
17
100
AcDbMlineStyle
  2
STANDARD
 70
     0
  3

 62
   256
 51
90.0
 52
90.0
 71
     2
 49
0.5
 62
   256
  6
BYLAYER
 49
-0.5
 62
   256
  6
BYLAYER
  0
ACDBPLACEHOLDER
  5
F
102
{ACAD_REACTORS
330
E
102
}
330
E
  0
SCALE
  5
10D
102
{ACAD_REACTORS
330
10C
102
}
330
10C
100
AcDbScale
 70
     0
300
1:1
140
1.0
141
1.0
290
     1
  0
SCALE
  5
1BE
102
{ACAD_REACTORS
330
10C
102
}
330
10C
100
AcDbScale
 70
     0
300
1:2
140
1.0
141
2.0
290
     0
  0
SCALE
  5
1BF
102
{ACAD_REACTORS
330
10C
102
}
330
10C
100
AcDbScale
 70
     0
300
1:4
140
1.0
141
4.0
290
     0
  0
SCALE
  5
1C0
102
{ACAD_REACTORS
330
10C
102
}
330
10C
100
AcDbScale
 70
     0
300
1:5
140
1.0
141
5.0
290
     0
  0
SCALE
  5
1C1
102
{ACAD_REACTORS
330
10C
102
}
330
10C
100
AcDbScale
 70
     0
300
1:8
140
1.0
141
8.0
290
     0
  0
SCALE
  5
1C2
102
{ACAD_REACTORS
330
10C
102
}
330
10C
100
AcDbScale
 70
     0
300
1:10
140
1.0
141
10.0
290
     0
  0
SCALE
  5
1C3
102
{ACAD_REACTORS
330
10C
102
}
330
10C
100
AcDbScale
 70
     0
300
1:16
140
1.0
141
16.0
290
     0
  0
SCALE
  5
1C4
102
{ACAD_REACTORS
330
10C
102
}
330
10C
100
AcDbScale
 70
     0
300
1:20
140
1.0
141
20.0
290
     0
  0
SCALE
  5
1C5
102
{ACAD_REACTORS
330
10C
102
}
330
10C
100
AcDbScale
 70
     0
300
1:30
140
1.0
141
30.0
290
     0
  0
SCALE
  5
1C6
102
{ACAD_REACTORS
330
10C
102
}
330
10C
100
AcDbScale
 70
     0
300
1:40
140
1.0
141
40.0
290
     0
  0
SCALE
  5
1C7
102
{ACAD_REACTORS
330
10C
102
}
330
10C
100
AcDbScale
 70
     0
300
1:50
140
1.0
141
50.0
290
     0
  0
SCALE
  5
1C8
102
{ACAD_REACTORS
330
10C
102
}
330
10C
100
AcDbScale
 70
     0
300
1:100
140
1.0
141
100.0
290
     0
  0
SCALE
  5
1C9
102
{ACAD_REACTORS
330
10C
102
}
330
10C
100
AcDbScale
 70
     0
300
2:1
140
2.0
141
1.0
290
     0
  0
SCALE
  5
1CA
102
{ACAD_REACTORS
330
10C
102
}
330
10C
100
AcDbScale
 70
     0
300
4:1
140
4.0
141
1.0
290
     0
  0
SCALE
  5
1CB
102
{ACAD_REACTORS
330
10C
102
}
330
10C
100
AcDbScale
 70
     0
300
8:1
140
8.0
141
1.0
290
     0
  0
SCALE
  5
1CC
102
{ACAD_REACTORS
330
10C
102
}
330
10C
100
AcDbScale
 70
     0
300
10:1
140
10.0
141
1.0
290
     0
  0
SCALE
  5
1CD
102
{ACAD_REACTORS
330
10C
102
}
330
10C
100
AcDbScale
 70
     0
300
100:1
140
100.0
141
1.0
290
     0
  0
ACDBSECTIONVIEWSTYLE
  5
21A
102
{ACAD_XDICTIONARY
360
11B5
102
}
102
{ACAD_REACTORS
330
219
102
}
330
219
100
AcDbModelDocViewStyle
 70
     0
  3
Metric50
290
     0
100
AcDbSectionViewStyle
 70
     0
 71
     0
 90
      102
 71
     1
340
11
 40
5.0
340
0
340
0
 40
5.0
300
I, O, Q, S, X, Z
 40
10.0
 90
        0
 40
2.5
 90
        0
 71
     2
340
16
 90
       25
340
16
 90
       50
 40
5.0
 40
2.5
 40
5.0
 71
     3
340
11
 40
5.0
 90
        0
 40
15.0
 90
        1
300
%<\AcVar ViewSectionStartId>%-%<\AcVar ViewSectionEndId>% (%<\AcVar ViewScale \f "%sn">%)
 71
     4
300
ANSI31
 40
1.0
 90
        0
290
     0
290
     0
 90
        6
 40
0.0
 40
1.570796326794896
 40
0.2617993877991494
 40
1.308996938995747
 40
-0.2617993877991494
 40
1.832595714594046
  0
TABLESTYLE
  5
7F
102
{ACAD_XDICTIONARY
360
162
102
}
102
{ACAD_REACTORS
330
7E
102
}
330
7E
100
AcDbTableStyle
  3
Standard
 70
     0
 71
     0
 40
1.5
 41
1.5
280
     0
281
     0
  7
Standard
140
4.5
170
     2
 62
     0
 63
     7
283
     0
274
    -2
284
     1
 64
     0
275
    -2
285
     1
 65
     0
276
    -2
286
     1
 66
     0
277
    -2
287
     1
 67
     0
278
    -2
288
     1
 68
     0
279
    -2
289
     1
 69
     0
  7
Standard
140
6.0
170
     5
 62
     0
 63
     7
283
     0
274
    -2
284
     1
 64
     0
275
    -2
285
     1
 65
     0
276
    -2
286
     1
 66
     0
277
    -2
287
     1
 67
     0
278
    -2
288
     1
 68
     0
279
    -2
289
     1
 69
     0
  7
Standard
140
4.5
170
     5
 62
     0
 63
     7
283
     0
274
    -2
284
     1
 64
     0
275
    -2
285
     1
 65
     0
276
    -2
286
     1
 66
     0
277
    -2
287
     1
 67
     0
278
    -2
288
     1
 68
     0
279
    -2
289
     1
 69
     0
  0
VISUALSTYLE
  5
F5
102
{ACAD_XDICTIONARY
360
118D
102
}
102
{ACAD_REACTORS
330
EF
102
}
330
EF
100
AcDbVisualStyle
  2
2dWireframe
 70
     4
 71
     0
 72
     2
 73
     1
 90
        0
 40
-0.6
 41
-30.0
 62
     5
 63
     7
 74
     1
 91
        4
 64
     7
 65
   257
 75
     1
175
     1
 42
1.0
 92
        0
 66
   257
 43
1.0
 76
     1
 77
     6
 78
     2
 67
     7
 79
     5
170
     0
171
     0
290
     0
174
     0
 93
        1
 44
0.0
173
     0
291
     0
 45
0.0
1001
ACAD
1000
AcDbSavedByObjectVersion
1070
     0
  0
VISUALSTYLE
  5
F4
102
{ACAD_XDICTIONARY
360
118B
102
}
102
{ACAD_REACTORS
330
EF
102
}
330
EF
100
AcDbVisualStyle
  2
Basic
 70
     7
 71
     1
 72
     0
 73
     1
 90
        0
 40
-0.6
 41
-30.0
 62
     5
 63
     7
 74
     0
 91
        4
 64
     7
 65
   257
 75
     1
175
     1
 42
1.0
 92
        8
 66
     7
 43
1.0
 76
     1
 77
     6
 78
     2
 67
     7
 79
     5
170
     0
171
     0
290
     0
174
     0
 93
        1
 44
0.0
173
     0
291
     1
 45
0.0
1001
ACAD
1000
AcDbSavedByObjectVersion
1070
     0
  0
VISUALSTYLE
  5
FB
102
{ACAD_XDICTIONARY
360
1199
102
}
102
{ACAD_REACTORS
330
EF
102
}
330
EF
100
AcDbVisualStyle
  2
Brighten
 70
    12
 71
     2
 72
     2
 73
     1
 90
        0
 40
-0.6
 41
-30.0
 62
     5
 63
     7
 74
     1
 91
        4
 64
     7
 65
   257
 75
     1
175
     1
 42
1.0
 92
        8
 66
     7
 43
1.0
 76
     1
 77
     6
 78
     2
 67
     7
 79
     5
170
     0
171
     0
290
     0
174
     0
 93
        1
 44
50.0
173
     0
291
     1
 45
0.0
1001
ACAD
1000
AcDbSavedByObjectVersion
1070
     0
  0
VISUALSTYLE
  5
FF
102
{ACAD_XDICTIONARY
360
11A1
102
}
102
{ACAD_REACTORS
330
EF
102
}
330
EF
100
AcDbVisualStyle
  2
ColorChange
 70
    16
 71
     2
 72
     2
 73
     3
 90
        0
 40
-0.6
 41
-30.0
 62
     5
 63
     8
 74
     1
 91
        4
 64
     7
 65
   257
 75
     1
175
     1
 42
1.0
 92
        8
 66
     8
 43
1.0
 76
     1
 77
     6
 78
     2
 67
     7
 79
     5
170
     0
171
     0
290
     0
174
     0
 93
        1
 44
0.0
173
     0
291
     1
 45
0.0
1001
ACAD
1000
AcDbSavedByObjectVersion
1070
     0
  0
VISUALSTYLE
  5
F8
102
{ACAD_XDICTIONARY
360
1193
102
}
102
{ACAD_REACTORS
330
EF
102
}
330
EF
100
AcDbVisualStyle
  2
Conceptual
 70
     9
 71
     3
 72
     2
 73
     1
 90
        0
 40
-0.6
 41
-30.0
 62
     5
 63
     7
 74
     2
 91
        2
 64
     7
 65
   257
 75
     1
175
     1
 42
40.0
 92
        8
 66
     7
 43
1.0
 76
     1
 77
     6
 78
     2
 67
     7
 79
     3
170
     0
171
     0
290
     0
174
     0
 93
        1
 44
0.0
173
     0
291
     0
 45
0.0
1001
ACAD
1000
AcDbSavedByObjectVersion
1070
     0
  0
VISUALSTYLE
  5
FA
102
{ACAD_XDICTIONARY
360
1197
102
}
102
{ACAD_REACTORS
330
EF
102
}
330
EF
100
AcDbVisualStyle
  2
Dim
 70
    11
 71
     2
 72
     2
 73
     1
 90
        0
 40
-0.6
 41
-30.0
 62
     5
 63
     7
 74
     1
 91
        4
 64
     7
 65
   257
 75
     1
175
     1
 42
1.0
 92
        8
 66
     7
 43
1.0
 76
     1
 77
     6
 78
     2
 67
     7
 79
     5
170
     0
171
     0
290
     0
174
     0
 93
        1
 44
-50.0
173
     0
291
     1
 45
0.0
1001
ACAD
1000
AcDbSavedByObjectVersion
1070
     0
  0
VISUALSTYLE
  5
1E6
102
{ACAD_XDICTIONARY
360
11A9
102
}
102
{ACAD_REACTORS
330
EF
102
}
330
EF
100
AcDbVisualStyle
  2
EdgeColorOff
 70
    22
 71
     2
 72
     2
 73
     0
 90
        0
 40
-0.6
 41
-30.0
 62
     5
 63
     7
 74
     1
 91
        4
 64
     7
 65
   257
 75
     1
175
     1
 42
1.0
 92
        8
 66
     7
 43
1.0
 76
     1
 77
     6
 78
     2
 67
     7
 79
     5
170
     0
171
     0
290
     0
174
     0
 93
        1
 44
0.0
173
     0
291
     1
 45
0.0
1001
ACAD
1000
AcDbSavedByObjectVersion
1070
     0
  0
VISUALSTYLE
  5
FE
102
{ACAD_XDICTIONARY
360
119F
102
}
102
{ACAD_REACTORS
330
EF
102
}
330
EF
100
AcDbVisualStyle
  2
Facepattern
 70
    15
 71
     2
 72
     2
 73
     1
 90
        0
 40
-0.6
 41
-30.0
 62
     5
 63
     7
 74
     1
 91
        4
 64
     7
 65
   257
 75
     1
175
     1
 42
1.0
 92
        8
 66
     7
 43
1.0
 76
     1
 77
     6
 78
     2
 67
     7
 79
     5
170
     0
171
     0
290
     0
174
     0
 93
        1
 44
0.0
173
     0
291
     1
 45
0.0
1001
ACAD
1000
AcDbSavedByObjectVersion
1070
     0
  0
VISUALSTYLE
  5
F0
102
{ACAD_XDICTIONARY
360
1183
102
}
102
{ACAD_REACTORS
330
EF
102
}
330
EF
100
AcDbVisualStyle
  2
Flat
 70
     0
 71
     2
 72
     1
 73
     1
 90
        2
 40
-0.6
 41
30.0
 62
     5
 63
     7
 74
     0
 91
        0
 64
     7
 65
   257
 75
     1
175
     1
 42
1.0
 92
        8
 66
     7
 43
1.0
 76
     1
 77
     6
 78
     2
 67
     7
 79
     5
170
     0
171
     0
290
     0
174
     0
 93
       13
 44
0.0
173
     0
291
     1
 45
0.0
1001
ACAD
1000
AcDbSavedByObjectVersion
1070
     0
  0
VISUALSTYLE
  5
F1
102
{ACAD_XDICTIONARY
360
1185
102
}
102
{ACAD_REACTORS
330
EF
102
}
330
EF
100
AcDbVisualStyle
  2
FlatWithEdges
 70
     1
 71
     2
 72
     1
 73
     1
 90
        2
 40
-0.6
 41
30.0
 62
     5
 63
     7
 74
     1
 91
        0
 64
     7
 65
   257
 75
     1
175
     1
 42
1.0
 92
        0
 66
   257
 43
1.0
 76
     1
 77
     6
 78
     2
 67
     7
 79
     5
170
     0
171
     0
290
     0
174
     0
 93
       13
 44
0.0
173
     0
291
     1
 45
0.0
1001
ACAD
1000
AcDbSavedByObjectVersion
1070
     0
  0
VISUALSTYLE
  5
F2
102
{ACAD_XDICTIONARY
360
1187
102
}
102
{ACAD_REACTORS
330
EF
102
}
330
EF
100
AcDbVisualStyle
  2
Gouraud
 70
     2
 71
     2
 72
     2
 73
     1
 90
        2
 40
-0.6
 41
30.0
 62
     5
 63
     7
 74
     0
 91
        0
 64
     7
 65
   257
 75
     1
175
     1
 42
1.0
 92
        0
 66
     7
 43
1.0
 76
     1
 77
     6
 78
     2
 67
     7
 79
     5
170
     0
171
     0
290
     0
174
     0
 93
       13
 44
0.0
173
     0
291
     1
 45
0.0
1001
ACAD
1000
AcDbSavedByObjectVersion
1070
     0
  0
VISUALSTYLE
  5
F3
102
{ACAD_XDICTIONARY
360
1189
102
}
102
{ACAD_REACTORS
330
EF
102
}
330
EF
100
AcDbVisualStyle
  2
GouraudWithEdges
 70
     3
 71
     2
 72
     2
 73
     1
 90
        2
 40
-0.6
 41
30.0
 62
     5
 63
     7
 74
     1
 91
        0
 64
     7
 65
   257
 75
     1
175
     1
 42
1.0
 92
        0
 66
   257
 43
1.0
 76
     1
 77
     6
 78
     2
 67
     7
 79
     5
170
     0
171
     0
290
     0
174
     0
 93
       13
 44
0.0
173
     0
291
     1
 45
0.0
1001
ACAD
1000
AcDbSavedByObjectVersion
1070
     0
  0
VISUALSTYLE
  5
F7
102
{ACAD_XDICTIONARY
360
1191
102
}
102
{ACAD_REACTORS
330
EF
102
}
330
EF
100
AcDbVisualStyle
  2
Hidden
 70
     6
 71
     1
 72
     2
 73
     2
 90
        0
 40
-0.6
 41
-30.0
 62
     5
 63
     7
 74
     2
 91
        2
 64
     7
 65
   257
 75
     2
175
     1
 42
40.0
 92
        0
 66
   257
 43
1.0
 76
     1
 77
     6
 78
     2
 67
     7
 79
     3
170
     0
171
     0
290
     0
174
     0
 93
        1
 44
0.0
173
     0
291
     0
 45
0.0
1001
ACAD
1000
AcDbSavedByObjectVersion
1070
     0
  0
VISUALSTYLE
  5
1E4
102
{ACAD_XDICTIONARY
360
11A5
102
}
102
{ACAD_REACTORS
330
EF
102
}
330
EF
100
AcDbVisualStyle
  2
JitterOff
 70
    20
 71
     2
 72
     2
 73
     0
 90
        0
 40
-0.6
 41
-30.0
 62
     5
 63
     7
 74
     1
 91
        4
 64
     7
 65
   257
 75
     1
175
     1
 42
1.0
 92
       10
 66
     7
 43
1.0
 76
     1
 77
     6
 78
     2
 67
     7
 79
     5
170
     0
171
     0
290
     0
174
     0
 93
        1
 44
0.0
173
     0
291
     1
 45
0.0
1001
ACAD
1000
AcDbSavedByObjectVersion
1070
     0
  0
VISUALSTYLE
  5
FD
102
{ACAD_XDICTIONARY
360
119D
102
}
102
{ACAD_REACTORS
330
EF
102
}
330
EF
100
AcDbVisualStyle
  2
Linepattern
 70
    14
 71
     2
 72
     2
 73
     1
 90
        0
 40
-0.6
 41
-30.0
 62
     5
 63
     7
 74
     1
 91
        4
 64
     7
 65
   257
 75
     7
175
     7
 42
1.0
 92
        8
 66
     7
 43
1.0
 76
     1
 77
     6
 78
     2
 67
     7
 79
     5
170
     0
171
     0
290
     0
174
     0
 93
        1
 44
0.0
173
     0
291
     1
 45
0.0
1001
ACAD
1000
AcDbSavedByObjectVersion
1070
     0
  0
VISUALSTYLE
  5
1E5
102
{ACAD_XDICTIONARY
360
11A7
102
}
102
{ACAD_REACTORS
330
EF
102
}
330
EF
100
AcDbVisualStyle
  2
OverhangOff
 70
    21
 71
     2
 72
     2
 73
     0
 90
        0
 40
-0.6
 41
-30.0
 62
     5
 63
     7
 74
     1
 91
        4
 64
     7
 65
   257
 75
     1
175
     1
 42
1.0
 92
        9
 66
     7
 43
1.0
 76
     1
 77
     6
 78
     2
 67
     7
 79
     5
170
     0
171
     0
290
     0
174
     0
 93
        1
 44
0.0
173
     0
291
     1
 45
0.0
1001
ACAD
1000
AcDbSavedByObjectVersion
1070
     0
  0
VISUALSTYLE
  5
F9
102
{ACAD_XDICTIONARY
360
1195
102
}
102
{ACAD_REACTORS
330
EF
102
}
330
EF
100
AcDbVisualStyle
  2
Realistic
 70
     8
 71
     2
 72
     2
 73
     0
 90
        2
 40
-0.6
 41
30.0
 62
     5
 63
     7
 74
     0
 91
        0
 64
     7
 65
   257
 75
     1
175
     1
 42
1.0
 92
        8
 66
   257
 43
1.0
 76
     1
 77
     6
 78
     2
 67
     7
 79
     3
170
     0
171
     0
290
     0
174
     0
 93
       13
 44
0.0
173
     0
291
     0
 45
0.0
1001
ACAD
1000
AcDbSavedByObjectVersion
1070
     0
  0
VISUALSTYLE
  5
1F3
102
{ACAD_XDICTIONARY
360
11B3
102
}
102
{ACAD_REACTORS
330
EF
102
}
330
EF
100
AcDbVisualStyle
  2
Shaded
 70
    27
 71
     2
 72
     2
 73
     1
 90
        2
 40
-0.6
 41
30.0
 62
     5
 63
     7
 74
     0
 91
        4
 64
     7
 65
   257
 75
     1
175
     1
 42
1.0
 92
        8
 66
   257
 43
1.0
 76
     1
 77
     6
 78
     2
 67
     8
 79
     3
170
     0
171
     0
290
     0
174
     0
 93
        5
 44
0.0
173
     0
291
     0
 45
0.0
1001
ACAD
1000
AcDbSavedByObjectVersion
1070
     0
  0
VISUALSTYLE
  5
1F2
102
{ACAD_XDICTIONARY
360
11B1
102
}
102
{ACAD_REACTORS
330
EF
102
}
330
EF
100
AcDbVisualStyle
  2
Shaded with edges
 70
    26
 71
     2
 72
     2
 73
     1
 90
        2
 40
-0.6
 41
30.0
 62
     5
 63
     7
 74
     1
 91
        2
 64
     7
 65
   257
 75
     2
175
     1
 42
1.0
 92
        8
 66
   257
 43
1.0
 76
     1
 77
     6
 78
     2
 67
     7
 79
     3
170
     0
171
     0
290
     0
174
     0
 93
        5
 44
0.0
173
     0
291
     0
 45
0.0
1001
ACAD
1000
AcDbSavedByObjectVersion
1070
     0
  0
VISUALSTYLE
  5
1EF
102
{ACAD_XDICTIONARY
360
11AB
102
}
102
{ACAD_REACTORS
330
EF
102
}
330
EF
100
AcDbVisualStyle
  2
Shades of Gray
 70
    23
 71
     2
 72
     2
 73
     3
 90
        0
 40
-0.6
 41
-30.0
 62
     5
 63
     7
 74
     2
 91
        2
 64
     7
 65
     7
 75
     1
175
     1
 42
40.0
 92
        8
 66
     7
 43
1.0
 76
     1
 77
     6
 78
     2
 67
     7
 79
     3
170
     0
171
     0
290
     0
174
     0
 93
        1
 44
0.0
173
     0
291
     0
 45
0.0
1001
ACAD
1000
AcDbSavedByObjectVersion
1070
     0
  0
VISUALSTYLE
  5
1F0
102
{ACAD_XDICTIONARY
360
11AD
102
}
102
{ACAD_REACTORS
330
EF
102
}
330
EF
100
AcDbVisualStyle
  2
Sketchy
 70
    24
 71
     1
 72
     2
 73
     2
 90
        0
 40
-0.6
 41
-30.0
 62
     5
 63
     7
 74
     2
 91
        2
 64
     7
 65
     7
 75
     1
175
     1
 42
40.0
 92
       11
 66
     7
 43
1.0
 76
     1
 77
     6
 78
     2
 67
     7
 79
     6
170
     0
171
     0
290
     0
174
     0
 93
        1
 44
0.0
173
     0
291
     0
 45
0.0
1001
ACAD
1000
AcDbSavedByObjectVersion
1070
     0
  0
VISUALSTYLE
  5
FC
102
{ACAD_XDICTIONARY
360
119B
102
}
102
{ACAD_REACTORS
330
EF
102
}
330
EF
100
AcDbVisualStyle
  2
Thicken
 70
    13
 71
     2
 72
     2
 73
     1
 90
        0
 40
-0.6
 41
-30.0
 62
     5
 63
     7
 74
     1
 91
        4
 64
     7
 65
   257
 75
     1
175
     1
 42
1.0
 92
       12
 66
     7
 43
1.0
 76
     1
 77
     6
 78
     2
 67
     7
 79
     5
170
     0
171
     0
290
     0
174
     0
 93
        1
 44
0.0
173
     0
291
     1
 45
0.0
1001
ACAD
1000
AcDbSavedByObjectVersion
1070
     0
  0
VISUALSTYLE
  5
F6
102
{ACAD_XDICTIONARY
360
118F
102
}
102
{ACAD_REACTORS
330
EF
102
}
330
EF
100
AcDbVisualStyle
  2
Wireframe
 70
     5
 71
     0
 72
     2
 73
     0
 90
        0
 40
-0.6
 41
-30.0
 62
     5
 63
     7
 74
     1
 91
        4
 64
     7
 65
   257
 75
     1
175
     1
 42
1.0
 92
        0
 66
   257
 43
1.0
 76
     1
 77
     6
 78
     2
 67
     7
 79
     3
170
     0
171
     0
290
     0
174
     0
 93
        1
 44
0.0
173
     0
291
     0
 45
0.0
1001
ACAD
1000
AcDbSavedByObjectVersion
1070
     0
  0
VISUALSTYLE
  5
1F1
102
{ACAD_XDICTIONARY
360
11AF
102
}
102
{ACAD_REACTORS
330
EF
102
}
330
EF
100
AcDbVisualStyle
  2
X-Ray
 70
    25
 71
     2
 72
     2
 73
     1
 90
        1
 40
0.5
 41
-30.0
 62
     5
 63
     7
 74
     1
 91
        0
 64
     7
 65
   257
 75
     1
175
     1
 42
1.0
 92
        8
 66
     7
 43
1.0
 76
     1
 77
     6
 78
     2
 67
     7
 79
     3
170
     0
171
     0
290
     0
174
     0
 93
       13
 44
0.0
173
     0
291
     0
 45
0.0
1001
ACAD
1000
AcDbSavedByObjectVersion
1070
     0
  0
DICTIONARYVAR
  5
146
102
{ACAD_REACTORS
330
5E
102
}
330
5E
100
DictionaryVariables
280
     0
  1
1:1
  0
DICTIONARYVAR
  5
259
102
{ACAD_REACTORS
330
5E
102
}
330
5E
100
DictionaryVariables
280
     0
  1
3.500000
  0
DICTIONARYVAR
  5
25A
102
{ACAD_REACTORS
330
5E
102
}
330
5E
100
DictionaryVariables
280
     0
  1
acadiso.lin
  0
DICTIONARYVAR
  5
145
102
{ACAD_REACTORS
330
5E
102
}
330
5E
100
DictionaryVariables
280
     0
  1
STANDARD
  0
DICTIONARYVAR
  5
84
102
{ACAD_REACTORS
330
5E
102
}
330
5E
100
DictionaryVariables
280
     0
  1
STANDARD
  0
DICTIONARYVAR
  5
227
102
{ACAD_REACTORS
330
5E
102
}
330
5E
100
DictionaryVariables
280
     0
  1
Metric50
  0
DICTIONARYVAR
  5
228
102
{ACAD_REACTORS
330
5E
102
}
330
5E
100
DictionaryVariables
280
     0
  1
Metric50
  0
DICTIONARYVAR
  5
5F
102
{ACAD_REACTORS
330
5E
102
}
330
5E
100
DictionaryVariables
280
     0
  1
2
  0
DICTIONARYVAR
  5
63
102
{ACAD_REACTORS
330
5E
102
}
330
5E
100
DictionaryVariables
280
     0
  1
1
  0
DICTIONARYVAR
  5
1124
102
{ACAD_REACTORS
330
5E
102
}
330
5E
100
DictionaryVariables
280
     0
  1
0
  0
DICTIONARYVAR
  5
1AE
102
{ACAD_REACTORS
330
5E
102
}
330
5E
100
DictionaryVariables
280
     0
  1
0
  0
DICTIONARYVAR
  5
1AF
102
{ACAD_REACTORS
330
5E
102
}
330
5E
100
DictionaryVariables
280
     0
  1
0
  0
DICTIONARYVAR
  5
1122
102
{ACAD_REACTORS
330
5E
102
}
330
5E
100
DictionaryVariables
280
     0
  1
2
  0
DICTIONARYVAR
  5
1121
102
{ACAD_REACTORS
330
5E
102
}
330
5E
100
DictionaryVariables
280
     0
  1
1
  0
DICTIONARYVAR
  5
1174
102
{ACAD_REACTORS
330
5E
102
}
330
5E
100
DictionaryVariables
280
     0
  1
80.000000
  0
DICTIONARYVAR
  5
1173
102
{ACAD_REACTORS
330
5E
102
}
330
5E
100
DictionaryVariables
280
     0
  1
5.000000
  0
DICTIONARYVAR
  5
1123
102
{ACAD_REACTORS
330
5E
102
}
330
5E
100
DictionaryVariables
280
     0
  1
127
  0
DICTIONARYVAR
  5
1175
102
{ACAD_REACTORS
330
5E
102
}
330
5E
100
DictionaryVariables
280
     0
  1
2
  0
DICTIONARY
  5
11B7
330
21C
100
AcDbDictionary
280
     1
281
     1
  3
ACAD_XREC_ROUNDTRIP
360
11B8
  0
DICTIONARY
  5
117C
330
D3
100
AcDbDictionary
280
     1
281
     1
  3
ACAD_XREC_ROUNDTRIP
360
117D
  0
DICTIONARY
  5
117E
330
D7
100
AcDbDictionary
280
     1
281
     1
  3
ACAD_XREC_ROUNDTRIP
360
117F
  0
DICTIONARY
  5
1179
330
22
100
AcDbDictionary
280
     1
281
     1
  3
ACAD_XREC_ROUNDTRIP
360
117A
  0
DICTIONARY
  5
1F9
330
ED
100
AcDbDictionary
280
     1
281
     1
  3
ACAD_XREC_ROUNDTRIP
360
1181
  3
FBXASSET
360
1FA
  0
DICTIONARY
  5
1F7
330
EC
100
AcDbDictionary
280
     1
281
     1
  3
ACAD_XREC_ROUNDTRIP
360
1180
  3
FBXASSET
360
1F8
  0
DICTIONARY
  5
173
330
EE
100
AcDbDictionary
280
     1
281
     1
  3
ACAD_XREC_ROUNDTRIP
360
1182
  3
BUMPTILE
360
175
  3
DIFFUSETILE
360
174
  3
FBXASSET
360
1FB
  3
OPACITYTILE
360
176
  3
REFLECTIONTILE
360
177
  0
DICTIONARY
  5
11A3
330
12E
100
AcDbDictionary
280
     1
281
     1
  3
ACAD_XREC_ROUNDTRIP
360
11A4
  0
DICTIONARY
  5
11B5
330
21A
100
AcDbDictionary
280
     1
281
     1
  3
ACAD_XREC_ROUNDTRIP
360
11B6
  0
DICTIONARY
  5
162
330
7F
100
AcDbDictionary
280
     1
281
     1
  3
ACAD_ROUNDTRIP_2008_TABLESTYLE_CELLSTYLEMAP
360
1176
  3
ACAD_XREC_ROUNDTRIP
360
117B
  0
DICTIONARY
  5
118D
330
F5
100
AcDbDictionary
280
     1
281
     1
  3
ACAD_XREC_ROUNDTRIP
360
118E
  0
DICTIONARY
  5
118B
330
F4
100
AcDbDictionary
280
     1
281
     1
  3
ACAD_XREC_ROUNDTRIP
360
118C
  0
DICTIONARY
  5
1199
330
FB
100
AcDbDictionary
280
     1
281
     1
  3
ACAD_XREC_ROUNDTRIP
360
119A
  0
DICTIONARY
  5
11A1
330
FF
100
AcDbDictionary
280
     1
281
     1
  3
ACAD_XREC_ROUNDTRIP
360
11A2
  0
DICTIONARY
  5
1193
330
F8
100
AcDbDictionary
280
     1
281
     1
  3
ACAD_XREC_ROUNDTRIP
360
1194
  0
DICTIONARY
  5
1197
330
FA
100
AcDbDictionary
280
     1
281
     1
  3
ACAD_XREC_ROUNDTRIP
360
1198
  0
DICTIONARY
  5
11A9
330
1E6
100
AcDbDictionary
280
     1
281
     1
  3
ACAD_XREC_ROUNDTRIP
360
11AA
  0
DICTIONARY
  5
119F
330
FE
100
AcDbDictionary
280
     1
281
     1
  3
ACAD_XREC_ROUNDTRIP
360
11A0
  0
DICTIONARY
  5
1183
330
F0
100
AcDbDictionary
280
     1
281
     1
  3
ACAD_XREC_ROUNDTRIP
360
1184
  0
DICTIONARY
  5
1185
330
F1
100
AcDbDictionary
280
     1
281
     1
  3
ACAD_XREC_ROUNDTRIP
360
1186
  0
DICTIONARY
  5
1187
330
F2
100
AcDbDictionary
280
     1
281
     1
  3
ACAD_XREC_ROUNDTRIP
360
1188
  0
DICTIONARY
  5
1189
330
F3
100
AcDbDictionary
280
     1
281
     1
  3
ACAD_XREC_ROUNDTRIP
360
118A
  0
DICTIONARY
  5
1191
330
F7
100
AcDbDictionary
280
     1
281
     1
  3
ACAD_XREC_ROUNDTRIP
360
1192
  0
DICTIONARY
  5
11A5
330
1E4
100
AcDbDictionary
280
     1
281
     1
  3
ACAD_XREC_ROUNDTRIP
360
11A6
  0
DICTIONARY
  5
119D
330
FD
100
AcDbDictionary
280
     1
281
     1
  3
ACAD_XREC_ROUNDTRIP
360
119E
  0
DICTIONARY
  5
11A7
330
1E5
100
AcDbDictionary
280
     1
281
     1
  3
ACAD_XREC_ROUNDTRIP
360
11A8
  0
DICTIONARY
  5
1195
330
F9
100
AcDbDictionary
280
     1
281
     1
  3
ACAD_XREC_ROUNDTRIP
360
1196
  0
DICTIONARY
  5
11B3
330
1F3
100
AcDbDictionary
280
     1
281
     1
  3
ACAD_XREC_ROUNDTRIP
360
11B4
  0
DICTIONARY
  5
11B1
330
1F2
100
AcDbDictionary
280
     1
281
     1
  3
ACAD_XREC_ROUNDTRIP
360
11B2
  0
DICTIONARY
  5
11AB
330
1EF
100
AcDbDictionary
280
     1
281
     1
  3
ACAD_XREC_ROUNDTRIP
360
11AC
  0
DICTIONARY
  5
11AD
330
1F0
100
AcDbDictionary
280
     1
281
     1
  3
ACAD_XREC_ROUNDTRIP
360
11AE
  0
DICTIONARY
  5
119B
330
FC
100
AcDbDictionary
280
     1
281
     1
  3
ACAD_XREC_ROUNDTRIP
360
119C
  0
DICTIONARY
  5
118F
330
F6
100
AcDbDictionary
280
     1
281
     1
  3
ACAD_XREC_ROUNDTRIP
360
1190
  0
DICTIONARY
  5
11AF
330
1F1
100
AcDbDictionary
280
     1
281
     1
  3
ACAD_XREC_ROUNDTRIP
360
11B0
  0
XRECORD
  5
11B8
102
{ACAD_REACTORS
330
11B7
102
}
330
11B7
100
AcDbXrecord
280
     1
102
DISPLAYNAME
  1
Metric50
102
FLAGS
 90
        0
  0
XRECORD
  5
117D
102
{ACAD_REACTORS
330
117C
102
}
330
117C
100
AcDbXrecord
280
     1
102
SHADEPLOT
 70
     0
102
SHADEPLOTRESLEVEL
 70
     2
102
SHADEPLOTCUSTOMDPI
 70
   300
  0
XRECORD
  5
117F
102
{ACAD_REACTORS
330
117E
102
}
330
117E
100
AcDbXrecord
280
     1
102
SHADEPLOT
 70
     0
102
SHADEPLOTRESLEVEL
 70
     2
102
SHADEPLOTCUSTOMDPI
 70
   300
  0
XRECORD
  5
117A
102
{ACAD_REACTORS
330
1179
102
}
330
1179
100
AcDbXrecord
280
     1
102
SHADEPLOT
 70
     0
102
SHADEPLOTRESLEVEL
 70
     2
102
SHADEPLOTCUSTOMDPI
 70
   300
  0
XRECORD
  5
1181
102
{ACAD_REACTORS
330
1F9
102
}
330
1F9
100
AcDbXrecord
280
     1
102
MATERIAL
148
0.0
149
0.0
149
0.0
 93
        0
 94
       63
282
     0
 72
     1
 77
     1
171
     1
175
     1
179
     1
273
     0
  0
XRECORD
  5
1FA
102
{ACAD_REACTORS
330
1F9
102
}
330
1F9
100
AcDbXrecord
280
     1
 70
     1
 90
429727718
  1
D62C5603-E3A1-4AEA-B7FB-FE5D8D0755AF
310
504B03040A0000080000CC70623B3DEE336E79000000790000001B0000006175746F6465736B2D64657369676E2D7061636B6167652E786D6C3C3F786D6C2076657273696F6E3D22312E302220656E636F64696E673D227574662D3822203F3E3C666F726D6174733E3C666F726D61743E687474703A2F2F736368656D612E
310
6175746F6465736B2E636F6D2F64657369676E2D7061636B6167652F323030393C2F666F726D61743E3C2F666F726D6174733E504B0304140006080800CC70623BD486FD9CA0000000F4000000130000005B436F6E74656E745F54797065735D2E786D6C7D8EC10E82300C865F65E91D8A1E8C310C0EEA1BF002731658846E
310
D98AC1B77784ABF1D8FE5FBFBF75BBCE937A534CCEB38643598122B6FEE978D0B0485F9C41B54DDD7D022595594E1A469170414C76A4D9A4D207E29CF43ECE46F218070CC6BECC4078ACAA135ACF422C856C0E68EA1BF5669944DDD7BCDE7B1F8E415D77AECB980613C2E4AC91FC167A2B244592486606FC29C8FD7F045B9A
310
EF7053A7E60B504B0304140006080800CC70623B853B8169EB0000007C01000008000000636F72652E786D6C8D90416EC3201045AF62CDB6C206821CC7C244919D9CA01740401C94182C03558F5F9C3852BBEB6A467FFE9B197D7EFC9E1EC5975982F5AE035262288C535E5B377690E21535501C055FBC8FBF6C503839990E
310
5619041F179FE64D52DE45E362569DD7661365082642A11EB9E920A89B99642953CC8E702F67A9EE7234257977194EC9EAE275C4EABCCF5EAD5940D4AC6F0E35A568B8F43562CD7046CD199FD07E60174276A7BE677B5EADB0E0D14EEFFB6A31321A0D82627C4084204C3F096B71DD52F6819B16635EADF63F509AF53FA164
310
5DDCD1EDDD17164090FCC8732078B56691CB33A85CD7DCC40F504B0304140006080800CC70623B55019EA25F0000007C00000007000000636E782E786D6C4DCB3B0E80201045D1AD90E915ED2CF8AC45050C11660C8261F98AB1B07AC9C97D42D718D865D3E909258CFD00CCE24AC6E326A164D74DC0B4128928FF32603847
310
2BA13128B1252AC747C6BAB984FC68F0B87FE8960A5C09FE86CFB69FBA01504B0304140006080800CC70623BDBABAAF470010000D40300000C0000006662782F636F72652E786D6CC553D16E823014FD95A6AF4B694182CC941A83FA05FB810A9511A125A5257EFE2E82712ECEB8A7F100CD39F7F69E734AF9FADC366850B6
310
AF8DCE7018308C942E4C59EB2AC3DE1D498AD15A706B8CFB56869196ADCAF00863C12B6B7C374385D14E6907A836A59A41D9F7CA615434B0C8705F7CAA5606D23BA8E84F41278B93AC54100640439DE0BDB320004D43C63716C7C399D30917DCFBBA9CD9BA8469F5B156168B24CED3F7248AC8769F27244EB73B92EED8862C
310
B7F13E0C179B3C8F979C8ECD82BBBABDAA2BAC924E9558448CBD9330242CFA08E3154B5651FCC6D215639C8EE5774DBE2B5F6CF2B5768B68963BB5F5588420E442FC700B1139D4CB01F450C1E918227C2E09DF070D8140C84E1E9AAB8F1340832A9CB13130A5F1376A908D57309505ECF2A0DF179C4E9D30F5B239B87E3823
310
7A79C6F31DE1A8A5AEC08474B03C7837EAE4938639B44E5932B833D2C6B6B279CDC613877FA26EE21F4A2A4C63EC7F29A2F301D1F9F7A0E37D145F504B0304140006080800CC70623B9C113CC27E0000009D0000000B0000006662782F636E782E786D6C4DCCDF0A83201C86E15B91DFB94BFB330DD428C8FB886521330DA7
310
6397BF1A1DECE883878F57749FCDA1B7892F1BBC047A23808C7F84D9FA55424E0BE6803A256208E9EF06C84F9B91703228B1C690F78B66B34CD9A5439DF5CF0BFBF65E35BCA1B8D6A5C6F540381E886698B5741C695F9503EBA150A2F8958E3DC3EA0B504B0304140006080800CC70623B7DF2F77C2A010000120200003100
310
00006662782F41393633353835312D344632462D344230382D423046372D3739314545314133324237412F636F72652E786D6C8D51DB8EC22014FC15C2939B0D2DB4B45643319AE817EC0F6041255A68B86CFCFC856D4D76DF7CE190393373060EDB3DC707F856CE6B6B7A480A0C81328395DA5C7B18C3057510EC3873D686
310
3F34088C18550F330C39BB3A1BA7051AAC09CA84841A2BD5020AEF55806078A44B0FFD7053A328440C89E1EFC52486BBB8AA8214A99D789CF9E05200300FC927E4FB4D5B375D43103D5527440FB843077C5AA3F5861C8F645F5787F59E95B390B318B55CE45AA638FAA2957BD7248B390B7A7CC51F9C124149C82B8C378810
310
84AB2F42B7B8DD56F413775B8C5999E9FF4471926F8AA236A1AE96B8B3CC434E5839373893369E1FAF30EA395917409EB7F26AF8801C171837A4A6AC9C89E9F9C9B1A58BA30FD6A5EF5DDDCF894B9AD9B6A59C957943A9FCAE2FD5BC4DFE03504B0304140006080800CC70623BAD7543B64E01000033030000300000006662
310
782F41393633353835312D344632462D344230382D423046372D3739314545314133324237412F636E782E786D6CD593CD6EC32010845F0571AD6CE3D48AD20813A9873E410FBD12D82434182C7EAAE6EDBB2424CD25871E7B41D6EC30B3FA84F9E67BB2E40B4234DE8DB46F1925E094D7C6ED479AD3AE5951B2113C789FEE
310
6C943839C1488B4C05DF079FE72A69D8C96C13AAD6B8631503449F83828872B949AC57D26200B826A308D316B4064D6E46FCDA41C05550DC9E483A00797BFD207EFB092A45DE9514C1BBD22178396BD39D891265658C238DEA00936C654E5E433CB65A26D9F6EDB5EBC14EBF49A45CB856E66048291F6939A9A81BB5C89177
310
38143CA680F4AA299D66A042CEB3354A2684DC9D8D178FE0D9B8B41CAAD720F880EE7EF93C0C18769E099ECC04D5A102C8049A8A05632F4DDF376CF1DE0F6BB65C2F8627B65A33C6BB62177CEBBDAD973006829F89F22E814B54F4BC2BE347F8AA8F681390B50FA73F804400B5F542E796F19FF974E7F78DB802FE05E20750
310
4B0304140006080800CC70623BE75B7789680500003C100000340000006662782F41393633353835312D344632462D344230382D423046372D3739314545314133324237412F6F626A656374732E786D6CAD575B8F9B3818FD2B887D06C22499CB8AA1CA655245D5B455A356FB305264C061D8018C6C3393D95FBFC7600890
310
A4CD5EF210B0B1BFEBF98E3F7B1FF6596ABC522E1296DF9BAE3D320D9A872C4AF2F8DE2CE5CEBA358D0FBEC719939D65A691938CDE9B6ADAF4BD98B3B2D05311DD91329583D9D5FC0F438434A7A611A644887B5384CF34233629258BA878B12322891DEFF6B66BD70BFB62634E8AE781D082709A4B588AF91C528CDA28B73F
310
1C998EEF39EABBEFA97FBD6A7C7E9553F9D3D79FE442923C3C523610337627CB87ABE99D359D4CC6D6E4FACAB5E6ABF9D2726FC6A3C5F56271377BB88362213924694B38DD99FE47C48627A1E7D49F5A8BB5E1A74C0A599ED3B0F21F1E56366B89112D681E218F0915D0D6F17AD41FBA2A369DCF6335D62ABBD39779D5DDD1
310
11D4D8DE3CBB96B2E04FB8202E41051754A1AA8E8F76B4C6DFE810B580B1547F4B84911149794252234D024EF8BBE963A95AE27B3D310A9D5C215C7960FAEE415ED75694C6AFB17BCACA5D99A60A9AA65F217B0BFC53292ACB92BF283FAD0D3621576592CB5BED907C2FA8E9DF794E35E97BEA31BED21FEB401ABB94C44839
310
DCACBF0E1C5DA8DA5B2F4DFFD32AD86F543D9E565E7056502E157C00AD2671CD534549AB752FCA9CDA00677A313F04E51B22FF19E57B300579E3C97EB29F682D92935CEC18CF901B7B54FD8C51F362B56FC72FE0B3C1EAE335EDCCBF5AEC39ADB17DC238973F804BA5E6F6BFE7AF1FB32E523BE9F3BD571418E3631DCA4D48
310
5250CF639223210A9446CA30052EDF057BD35F8329C1ECD84552BF0DC8D18BE7BCE23BFE6BD960AB4A7DE79923A103BEBD80F911CBAA2C60DB19B01CF164A5583B772EE6D3FFA56666CBCDA74DC97724A48F9A58967497E489C4D979006FD7A05E227A1EBDD0F737C623387A9C844D3709995625106D157315F8B8392CD4E0
310
A0B9A720C4BE9829CEF37EA1E13111214D53925356365ADA634861B52519DD27A00AEB808EAF0628E6F435519D446F45CF2C9CF5214F0A15B2F6D06B79DA3EE3CBF7F56780D2F4E7EF73A0F5E5B02A38D07DC852C6B7C1FBB6664213E0C39E3EBA7FF4E1AD23EA2829407C85E586727488B751B2DB9502BC7B228A3FD68B6E
310
A65A22397E690AA8D158D7E404EC8CDA235CC3B7D1898680131CEC2CDF2638C65196279577750F15884AEE19F94199155B92B13297978469D4F8D358DF0AEF7631E28DC8F0D9F437D5D39A83B2231A1D52D543813A824EF8D44BCFF2FA6A31BD1E8DAD87F1CCB526B3879935BF59CDADD5C37479BB1CDD4CA7B3556B516589
310
EF352754B706114D9C885EC9131DE6EFEB43D99AFE2391C2F958179413D7CFEF6B1B6DB1E7600F00DE6E5C67454A339A4BA2E0FBA85ED26F045D454F463DBFCE484C2F90F2E5E3666003662ED8F755951A7D1BECD5B30B550B2785C8E7320B7292A4838DDA71BBC863ED7613CAF659337A3354231D4FF4A182A54904C2898C
310
98B28C4AD0CE056CCF332A80986E571EE9DBC305BB5FEB7E509220A58D25CF042D712A806AC0AD0C657FDEF80D2D9CEAA2EE4D1C76F60BFE74219A06527D6F82DF6412526107381E55E353090704D085B52408A8913C4ED159D79BDA71BB4BC506F4831350EB6F975CD22D69BF7AC49B91A2C0A9DDA3D5CA36AD20FC478E37
310
E61844E2352865EBCB61A275A65283CAAA9DD27703B4102F5AF51EF5F573B75CBB5AD38BC845F7A49F82A0966A49C2E3EA5EA0ECD326CD965F1DB402C6FA8B51A4658C5C5E2EC9E214602E55810345408596591009A82E7E7FFACA19EEA299B14A0081A705CB3296EBC14CDF658DCD336EA6D1136881AAEB87B81AB9EE53D5
310
F5EB8BC8362082DA24122F98680A4E7930C01A0079749CEA14382A0783E5EBA5A10F8C098456A03D6A4AEB6BB881E2513747552A5DB22C7EDAF83BD5528081A365F7FF06504B0304140006080000CC70623B000000000000000000000000350000006662782F41393633353835312D344632462D344230382D423046372D37
310
39314545314133324237412F76657274696365732E62696E504B0304140006080800CC70623BF270F1330600000004000000360000006662782F41393633353835312D344632462D344230382D423046372D3739314545314133324237412F747269616E676C65732E62696E636660600000504B0304140006080000CC7062
310
3B000000000000000000000000370000006662782F41393633353835312D344632462D344230382D423046372D3739314545314133324237412F617474726962757465732E62696E504B0304140006080800CC70623B08DA0BD19000000041010000360000006662782F41393633353835312D344632462D344230382D4230
310
46372D3739314545314133324237412F6469726563746F72792E786D6C858F410AC3201045AF22B36F53E9A60B35CBEEBAE80D244E44489C6234F4F835464A48035D0DF398FF9F8AF63D0E6CC63039F212F8F9020C7D47C6792B21C5FE7403D62A1188E2E60C98D7234A5830286103A55745067B9D86B8A3CF9C7F90C11DE6
310
07FB144396D7B6A82D282E9A152AD114D5EF2CB866EEE831B8EEA07A7BB5A8D7D61A2BAAEB7FD5F70921FF497D00504B0304140006080800CC70623BEDD1DC58FD000000A00100003B0000006662782F41393633353835312D344632462D344230382D423046372D3739314545314133324237412F7265736F75726365732F
310
636F72652E786D6C8D504B6E833010BD0A9A6D65B00922041947112427E8052C33A156828DFCA97AFC9A40A576D7CDCCE87D344F8F9FBFE667F689CE6B6B3A6039850C8DB2A336530731DC4903D95970676DF82583CCC8193B5861107C72362E3BA4AC096842428D1D7107A5F7182053CF7474E0D507CE32973124857FE48B
310
540F3961CEF244279DE03EB81420DB9EAC1384436FA353E879B1B182C7A8C75DA3C7F453DF353A1075D537A7BA6464B8F535A99AE14A9A2BBD90E350DD183B5CFABE3AF262350B1EF4FC9351399401471025A527C218A1E53BAB5A5AB765F5469B96525EACF23FA6B88CFF34456DC2A1DCE36E360F82A5202F42F062ED2BAD
310
579969AFDD8A6F504B010214000A0000080000CC70623B3DEE336E79000000790000001B00000000000000000000000000000000006175746F6465736B2D64657369676E2D7061636B6167652E786D6C504B01021400140006080800CC70623BD486FD9CA0000000F40000001300000000000000000000000000B20000005B
310
436F6E74656E745F54797065735D2E786D6C504B01021400140006080800CC70623B853B8169EB0000007C010000080000000000000000000000000083010000636F72652E786D6C504B01021400140006080800CC70623B55019EA25F0000007C000000070000000000000000000000000094020000636E782E786D6C504B
310
01021400140006080800CC70623BDBABAAF470010000D40300000C00000000000000000000000000180300006662782F636F72652E786D6C504B01021400140006080800CC70623B9C113CC27E0000009D0000000B00000000000000000000000000B20400006662782F636E782E786D6C504B01021400140006080800CC70
310
623B7DF2F77C2A010000120200003100000000000000000000000000590500006662782F41393633353835312D344632462D344230382D423046372D3739314545314133324237412F636F72652E786D6C504B01021400140006080800CC70623BAD7543B64E010000330300003000000000000000000000000000D2060000
310
6662782F41393633353835312D344632462D344230382D423046372D3739314545314133324237412F636E782E786D6C504B01021400140006080800CC70623BE75B7789680500003C10000034000000000000000000000000006E0800006662782F41393633353835312D344632462D344230382D423046372D3739314545
310
314133324237412F6F626A656374732E786D6C504B01021400140006080000CC70623B0000000000000000000000003500000000000000000000000000280E00006662782F41393633353835312D344632462D344230382D423046372D3739314545314133324237412F76657274696365732E62696E504B01021400140006
310
080800CC70623BF270F133060000000400000036000000000000000000000000007B0E00006662782F41393633353835312D344632462D344230382D423046372D3739314545314133324237412F747269616E676C65732E62696E504B01021400140006080000CC70623B0000000000000000000000003700000000000000
310
000000000000D50E00006662782F41393633353835312D344632462D344230382D423046372D3739314545314133324237412F617474726962757465732E62696E504B01021400140006080800CC70623B08DA0BD1900000004101000036000000000000000000000000002A0F00006662782F41393633353835312D344632
310
462D344230382D423046372D3739314545314133324237412F6469726563746F72792E786D6C504B01021400140006080800CC70623BEDD1DC58FD000000A00100003B000000000000000000000000000E1000006662782F41393633353835312D344632462D344230382D423046372D3739314545314133324237412F7265
310
736F75726365732F636F72652E786D6C504B0506000000000E000E0080040000641100000000
  0
XRECORD
  5
1180
102
{ACAD_REACTORS
330
1F7
102
}
330
1F7
100
AcDbXrecord
280
     1
102
MATERIAL
148
0.0
149
0.0
149
0.0
 93
        0
 94
       63
282
     0
 72
     1
 77
     1
171
     1
175
     1
179
     1
273
     0
  0
XRECORD
  5
1F8
102
{ACAD_REACTORS
330
1F7
102
}
330
1F7
100
AcDbXrecord
280
     1
 70
     1
 90
429727718
  1
30362254-06B7-45E0-A893-8CFA70E3D6BC
310
504B03040A0000080000CC70623B3DEE336E79000000790000001B0000006175746F6465736B2D64657369676E2D7061636B6167652E786D6C3C3F786D6C2076657273696F6E3D22312E302220656E636F64696E673D227574662D3822203F3E3C666F726D6174733E3C666F726D61743E687474703A2F2F736368656D612E
310
6175746F6465736B2E636F6D2F64657369676E2D7061636B6167652F323030393C2F666F726D61743E3C2F666F726D6174733E504B0304140006080800CC70623BD486FD9CA0000000F4000000130000005B436F6E74656E745F54797065735D2E786D6C7D8EC10E82300C865F65E91D8A1E8C310C0EEA1BF002731658846E
310
D98AC1B77784ABF1D8FE5FBFBF75BBCE937A534CCEB38643598122B6FEE978D0B0485F9C41B54DDD7D022595594E1A469170414C76A4D9A4D207E29CF43ECE46F218070CC6BECC4078ACAA135ACF422C856C0E68EA1BF5669944DDD7BCDE7B1F8E415D77AECB980613C2E4AC91FC167A2B244592486606FC29C8FD7F045B9A
310
EF7053A7E60B504B0304140006080800CC70623B1EC5D7A3EB0000007C01000008000000636F72652E786D6C8D90416EC3201045AF82665B6103C6756C6122AB4D4ED00B204C5C94182C03558F5F9C3852BBEB6A467FFE9B197D71FC9E6FE8CBACC17AD7032D0820E3B41FAD9B7A48F1820F808E52ACDEC75F36404ECDA687
310
4D0629A6D5A76597B477D1B89855E747B38B2A041301E95B6E7A08FAD3CCAA50296647B8168BD2573599823EBB0CA76447F43862C7BCCF5EAC59410E4DDD9C7973C2755553CCCFA4C603E3040F1565ED3B1FDE4E432BCA0D9622DAF9795FAF464533826484B498524CD807E51D79ED187F21878E10516EF63F505AC67F42C9
310
BA58B1FDDD071640D2FCC87D2045B96591CB3DA85CB7DCE40F504B0304140006080800CC70623B55019EA25F0000007C00000007000000636E782E786D6C4DCB3B0E80201045D1AD90E915ED2CF8AC45050C11660C8261F98AB1B07AC9C97D42D718D865D3E909258CFD00CCE24AC6E326A164D74DC0B4128928FF32603847
310
2BA13128B1252AC747C6BAB984FC68F0B87FE8960A5C09FE86CFB69FBA01504B0304140006080800CC70623B8C9102E971010000D40300000C0000006662782F636F72652E786D6CC5535B6E833010BC8AE5DF0A6C08340F1947A84D4ED00B38C6A128602363A31CBFCB234A53A551FA553EC09AD9F5CE8C31DB9E9B1AF5CA
310
7695D1198E428A91D2D214952E33ECDD315861B4E5CC1AE3BE9561A445A3323CC098B3D21ADFCE9034DA29ED00D5A6503328BA4E398C640D8B0C77F253352214DE4145770A5B214FA2546114020D759C75CE8200340D19DE981F0F6746269C33EFAB6266AB02A655C74A59CCF365BADC27CB5D902ED22848F6340DF238A141
310
BE88E2F57B92BFEDF23523433367AE6A2EEAA455C2A902F398D2751045018D3FA264435F3771F242571B4A1919CA6F9A7C5B3CD9E42BED16F12C776AEB308F40C848FC700B1139D4891EF410CEC810227CC6846F8386402064270EF5C5C709A05E49676C024C61FC95EA45ED154CA5211D1FF4FB8291A913A68E9B83EBBB33
310
E2A7673CDE118E5AE8124C0807CB8377834E366998436B950D7A7746DAD846D4CFD978E0F04FD455FC5D49D2D4C6FE9722321F10997F0F32DC47FE05504B0304140006080800CC70623BFFEA85907E0000009D0000000B0000006662782F636E782E786D6C4DCCD10A83201886E15B91FFDC95D95A811AB6F23E625948A6C3
310
E9D8E5AF46073BFAE0E1E365ED67B3E8ADC3CB78C7815C7240DA3DFC64DCC221C519D7805AC182F7F1EF06C88D9BE6703008B6049F9E274D7A1E938DBB5AE3D6131B2589BA0D3D965551E0B2EA732C9B9A624AAEB41E3A557677029960D9AFB4EF11165F504B0304140006080800CC70623B4FEEA4082C0100001202000031
310
0000006662782F39464131463745442D413632322D343644302D413938332D3331353338454246344243312F636F72652E786D6C8D515B6EC32010BC0AE2AB55850DD871ED0813254D72825EC00192A2C460F1A872FC42ED48ED5F7E00CDCECCCEB26C731F6FE05B39AFADE921293004CA082BB5B9F43086336A21D870E6AC
310
0D7F68109861543DCC30E4ECE26C9C164858139409093556AA051CBC570102714B8F1E7AF1A5C6A11862480C7F2DA6415C878B2A4891CA89C7990F2E050073937C42DE1DB7E4F87ED8A36D4329AA9B3D46DBAEAD504556557BD81DEBDD0761E52CE42C462D17B996298E3E6BE59E35C962CE821E1FF18553435012728A7187
310
0841987E927A8D9B35ADDF70BBC6989599FE4F1427F9A4286A132ABAC49D651EF234CD5CE04CDA78BA3DC2A8FB645D00B9DF8B57E215725C60BCA2A463E54C4CE327C7A65E1C7DB02E7DEFCBF594B864C5CA6CDBD49C957943E9FA5D5FBAF336F90F504B0304140006080800CC70623BAD7543B64E01000033030000300000
310
006662782F39464131463745442D413632322D343644302D413938332D3331353338454246344243312F636E782E786D6CD593CD6EC32010845F0571AD6CE3D48AD20813A9873E410FBD12D82434182C7EAAE6EDBB2424CD25871E7B41D6EC30B3FA84F9E67BB2E40B4234DE8DB46F1925E094D7C6ED479AD3AE5951B2113C
310
789FEE6C943839C1488B4C05DF079FE72A69D8C96C13AAD6B8631503449F83828872B949AC57D26200B826A308D316B4064D6E46FCDA41C05550DC9E483A00797BFD207EFB092A45DE9514C1BBD22178396BD39D891265658C238DEA00936C654E5E433CB65A26D9F6EDB5EBC14EBF49A45CB856E66048291F6939A9A81BB5
310
C8917738143CA680F4AA299D66A042CEB3354A2684DC9D8D178FE0D9B8B41CAAD720F880EE7EF93C0C18769E099ECC04D5A102C8049A8A05632F4DDF376CF1DE0F6BB65C2F8627B65A33C6BB62177CEBBDAD973006829F89F22E814B54F4BC2BE347F8AA8F681390B50FA73F804400B5F542E796F19FF974E7F78DB802FE05
310
E207504B0304140006080800CC70623B16AB87BA640500003C100000340000006662782F39464131463745442D413632322D343644302D413938332D3331353338454246344243312F6F626A656374732E786D6CAD575B6FA33818FD2B887DE6924B3BED8A326A92B68A663B534DD4D13E548A0C38942D60649B369D5FBFC7
310
600890A493BDE42160637FD7F31D7FF63E6FB3D478A55C242CBF3247B66B1A340F5994E4F19559CA8D75611A9F7D8F33263BCB4C232719BD32D5B4E97B316765A1A722BA21652A07B3B7B33F0D11D29C9A46981221AE4C113ED38CD8A4942CA2E2C58E882476BCD9DA23BB5ED8171B73523C0F841684D35CC252CCE79062D4
310
468DFA43D7747CCF51DF7D4FFDEB5593E3AB9CCA9FBEFE241792E4E19EB28198C968BAB8199F5D5A67D3E9C49A9E8F47D6EC76B6B0469F26EEFC7C3EBFBCBEB98462213924694B38DD98FE1D62C393D073EA4FADC5DAF04326852CCF6958F90F0F2B9BB5C48816348F90C7840A68EB78EDF68723159BCEE7891A6B95DDE9D3
310
BCEAEEE8086A6C6F9E5D4B59F0175C10A7A0820BAA5055C7473B5AE3CFDD452D602CD5DF12616444529E90D448938013FE6EFA58AA96F85E4F8C42275708571E98FE6827AF6B2B4AE3D7D83D64E5A64C53054DD3AF90BD06FEA9149565C94FCA0F6B834DC85599E4F2423B24DF0B6AFA979E534DFA9E7A4CC6FA631D486393
310
921829879BF5D781A373557BCB85E97FB90DB62B558F8795179C15944B051F40AB495CF35451D26A4727654E6D8033BD98EF82F21D91FF8AF2DD9982BCF1643BDD4EB516C9492E368C67C88DED563FC36D5EACF66DFF057C3658BDBFA69DF9578B3DA735B64F18C7F20770A9D45CFCF7FCF563D6456A277DBEF78A02637CA2
310
43B90A490AEAB94F72244481D24819A6C0E59B606BFA4B3025981DBB48EAB701D97BF19C577CC77F2D1B6C55A9EF3C732474C0B727303F625995056C3B02963D9EAC146BE78EC5FCEC7FA999EBC5EACBAAE41B12D27B4D2C0BBA49F244E2ECDC81B76B502F113D8F5EE8FB1BE3111CDD4FC2AA9B844CAB1288B68AB90A7CDC
310
1C166AB0D3DC5310625FCC14E779BFD0709F8890A629C9292B1B2DED31A4B0DA928CEE135085754027E3018A397D4D5427D15BD1330B677DC8934285AC3DF45A9EB68FF8F2B8FC0A509AFEECFD0FF2DE25CC6047F7214B195F07EFEB9A094D800F7BFAE8FED187B78EA8A3A400F115961BCAD1215E47C966530AF0EE8128FE
310
58CEBB996A8964FFA529A046635D9353B0336A8F700DDF46271A024E70B0B37C9DE01847591E54DED53D54202AB947E4076556AC49C6CA5C9E1226B7F1A7B1BE15DEED62C41B91E1B3E9AFAAA735036547343A925075041DF0A9979E893B391F8FCFA6967B3EFB644DCF6E5CEBFAE272625DCC6FAF3FB93793C5F90CE1EF57
310
407342756B10D1C489E8953CD1617E5CEECAD6F4EF8914CE5D5D504E5C3F1F9736DA62CFC11E00BCDDB8CC8A9466349744C1F75EBDA4DF09BA8A9E8C7A7E9991989E20E5DBDD6A6003664ED8F7A04A8DBE0DF6EAD9B9AA858342E47399053949D2C146EDB85DE4B176BB0965FBAC19BD19AA918E27FA50C1D22402E144464C
310
59462568E704B6E71915404CB72B8FF4EDE184DDAF753F284990D2C6926782963815403548A70C657FDEF80D2D9CEAA2AE4C1C76F60BFE74219A06527D6582DF6412526107381E55E353090704D085B52408D0933C4ED159D79BDA71BB4BC506F4831350EB6F979CD22D69BF7AC49B91A2C0A9DDA3D5CA36AD20FC478E37E6
310
1844E2352865EBCB6EA275A652E3836BE04EFB400BF1A2556F515F1FBB35B2AB35BD889C744FFA1004B5544B121E57F70215746DD2F5E2C1412B602CBF19455AC6C8E5E9922C4E01E65215385004546899059180EAFCF7A707CE7017CD8CDB0410789AB32C63B91E5CEBBBACB17AC6CD347A022D5075FD106377347AAABA7E
310
7D11590744509B44E205134DC1290F06580320F78E537D3D73540E06CB970B431F185308AD40BBD794D6D77003C5A36E8EAA54BA64597CD8F83BD552A080A365F7FF06504B0304140006080000CC70623B000000000000000000000000350000006662782F39464131463745442D413632322D343644302D413938332D3331
310
353338454246344243312F76657274696365732E62696E504B0304140006080800CC70623BF270F1330600000004000000360000006662782F39464131463745442D413632322D343644302D413938332D3331353338454246344243312F747269616E676C65732E62696E636660600000504B0304140006080000CC70623B
310
000000000000000000000000370000006662782F39464131463745442D413632322D343644302D413938332D3331353338454246344243312F617474726962757465732E62696E504B0304140006080800CC70623B08DA0BD19000000041010000360000006662782F39464131463745442D413632322D343644302D413938
310
332D3331353338454246344243312F6469726563746F72792E786D6C858F410AC3201045AF22B36F53E9A60B35CBEEBAE80D244E44489C6234F4F835464A48035D0DF398FF9F8AF63D0E6CC63039F212F8F9020C7D47C6792B21C5FE7403D62A1188E2E60C98D7234A5830286103A55745067B9D86B8A3CF9C7F90C11DE607
310
FB144396D7B6A82D282E9A152AD114D5EF2CB866EEE831B8EEA07A7BB5A8D7D61A2BAAEB7FD5F70921FF497D00504B0304140006080800CC70623B0D6EF93BFE000000A00100003B0000006662782F39464131463745442D413632322D343644302D413938332D3331353338454246344243312F7265736F75726365732F63
310
6F72652E786D6C8D50596E833010BD0A9ADFCA60B334011947A8694ED00B586642AC041B79A97AFC9A40A5F6AF3F33A3B7689E1E3F7DCD8FEC139DD7D6F4C0720A191A65476DA61E62B892236427C19DB5E1970C322367EC618541F0C9D9B8EC90B226A009093576C41D94DE63804C3DD2D18357379C652E63480A7FCF17A9
310
EE72C29CE5894E3AC17D702940B63D59270887DE46A7D0F36263058F518FBB468FE9A7BE6A7420864373B8D4873369AA8691FA421B3294352543C5CAF65C0F6FEF43CB8BD52C78D0F34F46E550061C419494B6843142CB0F5677F4B52BEB177AEC28E5C52AFF638ACBF84F53D42654E51E77B379102C05791282176B5F693D
310
CB4C7BED567C03504B010214000A0000080000CC70623B3DEE336E79000000790000001B00000000000000000000000000000000006175746F6465736B2D64657369676E2D7061636B6167652E786D6C504B01021400140006080800CC70623BD486FD9CA0000000F40000001300000000000000000000000000B20000005B
310
436F6E74656E745F54797065735D2E786D6C504B01021400140006080800CC70623B1EC5D7A3EB0000007C010000080000000000000000000000000083010000636F72652E786D6C504B01021400140006080800CC70623B55019EA25F0000007C000000070000000000000000000000000094020000636E782E786D6C504B
310
01021400140006080800CC70623B8C9102E971010000D40300000C00000000000000000000000000180300006662782F636F72652E786D6C504B01021400140006080800CC70623BFFEA85907E0000009D0000000B00000000000000000000000000B30400006662782F636E782E786D6C504B01021400140006080800CC70
310
623B4FEEA4082C0100001202000031000000000000000000000000005A0500006662782F39464131463745442D413632322D343644302D413938332D3331353338454246344243312F636F72652E786D6C504B01021400140006080800CC70623BAD7543B64E010000330300003000000000000000000000000000D5060000
310
6662782F39464131463745442D413632322D343644302D413938332D3331353338454246344243312F636E782E786D6C504B01021400140006080800CC70623B16AB87BA640500003C1000003400000000000000000000000000710800006662782F39464131463745442D413632322D343644302D413938332D3331353338
310
454246344243312F6F626A656374732E786D6C504B01021400140006080000CC70623B0000000000000000000000003500000000000000000000000000270E00006662782F39464131463745442D413632322D343644302D413938332D3331353338454246344243312F76657274696365732E62696E504B01021400140006
310
080800CC70623BF270F133060000000400000036000000000000000000000000007A0E00006662782F39464131463745442D413632322D343644302D413938332D3331353338454246344243312F747269616E676C65732E62696E504B01021400140006080000CC70623B0000000000000000000000003700000000000000
310
000000000000D40E00006662782F39464131463745442D413632322D343644302D413938332D3331353338454246344243312F617474726962757465732E62696E504B01021400140006080800CC70623B08DA0BD190000000410100003600000000000000000000000000290F00006662782F39464131463745442D413632
310
322D343644302D413938332D3331353338454246344243312F6469726563746F72792E786D6C504B01021400140006080800CC70623B0D6EF93BFE000000A00100003B000000000000000000000000000D1000006662782F39464131463745442D413632322D343644302D413938332D3331353338454246344243312F7265
310
736F75726365732F636F72652E786D6C504B0506000000000E000E0080040000641100000000
  0
XRECORD
  5
1182
102
{ACAD_REACTORS
330
173
102
}
330
173
100
AcDbXrecord
280
     1
102
MATERIAL
148
0.0
149
0.0
149
0.0
 93
        0
 94
       63
282
     0
 72
     1
 77
     1
171
     1
175
     1
179
     1
273
     0
  0
XRECORD
  5
175
102
{ACAD_REACTORS
330
173
102
}
330
173
100
AcDbXrecord
280
     1
270
     1
271
     1
  0
XRECORD
  5
174
102
{ACAD_REACTORS
330
173
102
}
330
173
100
AcDbXrecord
280
     1
270
     1
271
     1
  0
XRECORD
  5
1FB
102
{ACAD_REACTORS
330
173
102
}
330
173
100
AcDbXrecord
280
     1
 70
     0
 90
1673772943
  1
ECE7A1D2-D628-4531-984C-D00F80459256
310
504B03040A0000080000CC70623B3DEE336E79000000790000001B0000006175746F6465736B2D64657369676E2D7061636B6167652E786D6C3C3F786D6C2076657273696F6E3D22312E302220656E636F64696E673D227574662D3822203F3E3C666F726D6174733E3C666F726D61743E687474703A2F2F736368656D612E
310
6175746F6465736B2E636F6D2F64657369676E2D7061636B6167652F323030393C2F666F726D61743E3C2F666F726D6174733E504B0304140006080800CC70623BD486FD9CA0000000F4000000130000005B436F6E74656E745F54797065735D2E786D6C7D8EC10E82300C865F65E91D8A1E8C310C0EEA1BF002731658846E
310
D98AC1B77784ABF1D8FE5FBFBF75BBCE937A534CCEB38643598122B6FEE978D0B0485F9C41B54DDD7D022595594E1A469170414C76A4D9A4D207E29CF43ECE46F218070CC6BECC4078ACAA135ACF422C856C0E68EA1BF5669944DDD7BCDE7B1F8E415D77AECB980613C2E4AC91FC167A2B244592486606FC29C8FD7F045B9A
310
EF7053A7E60B504B0304140006080800CC70623BD9DDAED0EC0000007C01000008000000636F72652E786D6C8D90416EC3201045AF82665B61836D9CD8C2444DD39CA01740405C94182C03558F5F9C3852BBEB6A467FFE9B197D7EF89E6EE8CB2CC17A37002D0820E394D7D68D03A478C17B4007C117EFE32F1B20272733C0
310
2A83E0E3E2D3BC49CABB685CCCAAF3DA6CA20CC14440EA969B0182FA34932C648AD911AEC52CD5558EA6A0CF2EC329598D1E47ACCEFBECC59A050463A7EA5833865FEBDD0E37353BE3EE8DBDE3F6786A48D375FBF6CC78B9C282473B3DEFABC5C86834888A900E538A49F5419B9EB47DD5BC907D4F082F57FB1F28CDFA9F50
310
B22ED6D5F6EE030B20687EE43E10BC5CB3C8E51E54AE6B6EE207504B0304140006080800CC70623B55019EA25F0000007C00000007000000636E782E786D6C4DCB3B0E80201045D1AD90E915ED2CF8AC45050C11660C8261F98AB1B07AC9C97D42D718D865D3E909258CFD00CCE24AC6E326A164D74DC0B4128928FF326038
310
472BA13128B1252AC747C6BAB984FC68F0B87FE8960A5C09FE86CFB69FBA01504B0304140006080800CC70623BA24EB22D72010000D40300000C0000006662782F636F72652E786D6CC5535B6E833010BC8AE5DF0A6C5E49888CA3A6694ED00B38E05014B091B1518EDFE511A5A9D228FD2A1F60CDEC7A67C6986DCE4D8D7A
310
69BA4AAB0C073EC548AA5C17952A33ECECD15B61B4E1CC686DBF9561A44423333CC098B3D268D7CE50AE9595CA02AA74216750749DB418E5352C32DCE59FB211BE70162ABA93DF8AFC244AE9073ED050C759670D0840D390E18DF9F1706664C23973AE2A66B62A605A75ACA4C13C4976E1364A12EF355A2EBD384AF65EFA96
310
BC7B8BED2EA6719AAE16FB8491A199335B351775B991C2CA02F390D2D40B028F861F41BCA68B7518BFD0D59A524686F29B26D7164F36B94AD9289CE54E6D1DE6010819891F6E21228B3AD1831EC219194284CF98F06DD01008846CC5A1BEF83801D4CBDC6A1303536877A57A513B0953A94FC707FDBE6064EA84A9E3E6E0FA
310
EE8CF0E9198F7784A316AA0413C2C2F2E0ECA0934D1AE6D05A69BCDE9E91D2A611F573361E38FC1375157F5752AE6B6DFE4B11990F88CCBF0719EE23FF02504B0304140006080800CC70623B408A7D3B7C0000009D0000000B0000006662782F636E782E786D6C4DCCD10A83201886E15B91FFDC552A92A0064DBC8F581632
310
D3703A76F9ABD1C18E3E78F878E5F0D9027ABBFCF2292AE86E2D20171F69F6715550CB827B40839639A5F2770314A7CD293819B45C73AAFB45B35BA61ACAA1C1C7E7855C58C15BC331339661262CC762340413D68D77DA5B42298546CBE6573AF60CEB2F504B0304140006080800CC70623B449FB9BD290100001202000031
310
0000006662782F36394639363044362D344446342D343946362D394244322D3234314243333846323333332F636F72652E786D6C8D515B6EC32010BC0AE22B55850D98B871848994463E412FE002495162B07854397EA176A4F62F3F2C9A9D991D587EB84F37F0AD7D30CEF6905418026DA553C65E7A98E219ED203808EE9D
310
8B7F6810D871D23D2C3014FCE25D9A57483A1BB58D19B54EE9151C43D0110279CB971E06F9A5A7B11A53CC8C70ADE6515EC78BAE4895DB992778883E0700CB907242D17643D7E2538BD869608875438BBAE38922CAC8F1BDD90DB4691A5E2F42C153326A951B95E398B3D1FE599322163C9AE9115F7A3D46ADA0A018778810
310
84E907617BDCEE297BC5BB3DC6BC2EF47FA234AB2745C9D8D8D035EE220B50105E2F0DC1954B9FB747187D9F9D8FA0CCDB042D5FA0C015C65B42DF78BD10F3F3B363CB56C7109DCFDFBBB97E662ED92EB62D13BC2E1BCAE5777DB9966D8A1F504B0304140006080800CC70623BAD7543B64E01000033030000300000006662
310
782F36394639363044362D344446342D343946362D394244322D3234314243333846323333332F636E782E786D6CD593CD6EC32010845F0571AD6CE3D48AD20813A9873E410FBD12D82434182C7EAAE6EDBB2424CD25871E7B41D6EC30B3FA84F9E67BB2E40B4234DE8DB46F1925E094D7C6ED479AD3AE5951B2113C789FEE
310
6C943839C1488B4C05DF079FE72A69D8C96C13AAD6B8631503449F83828872B949AC57D26200B826A308D316B4064D6E46FCDA41C05550DC9E483A00797BFD207EFB092A45DE9514C1BBD22178396BD39D891265658C238DEA00936C654E5E433CB65A26D9F6EDB5EBC14EBF49A45CB856E66048291F6939A9A81BB5C89177
310
38143CA680F4AA299D66A042CEB3354A2684DC9D8D178FE0D9B8B41CAAD720F880EE7EF93C0C18769E099ECC04D5A102C8049A8A05632F4DDF376CF1DE0F6BB65C2F8627B65A33C6BB62177CEBBDAD973006829F89F22E814B54F4BC2BE347F8AA8F681390B50FA73F804400B5F542E796F19FF974E7F78DB802FE05E20750
310
4B0304140006080800CC70623B8D05915C650500003B100000340000006662782F36394639363044362D344446342D343946362D394244322D3234314243333846323333332F6F626A656374732E786D6CAD575B6FA33814FE2B887D06429276DA1565D4266D158D3A339A6846FB502932E050B66023DB74D2FDF5FB190C01
310
9276B2973C046C8ECFF53B17071F77456EBD502133CEAE6CDF9DD81665314F32965ED995DA3A17B6F5310C04E7AA47665B8C14F4CAD6DB7618A48257A5D94AE89654B91AEDDEDDFC61C998326A5B714EA4BCB265FC440BE2924AF184CA6737218AB8E976E7FA6E4338649B0A523E8D98964450A6A029F619B8588D52FE7039
310
B1BD30F0F4F730D0FF866AF6369557DB33949F31A9088B0F848DD8CCFCF9F2767A76E99CCDE733677E3EF59D9BBB9BA5E37F984D16E78BC5E5F5ED25044B25C0C96822E8D60EEFE11B91C581D77CEA34368A1F5329E68CD1B8B61F16D63A1B8E092D294B10C78C4A48EB593D192E7DED9BDEE7995E1B91FDEDD3ACEA9FE831
310
6A756F9F7D4D79F4274C90A7A04248AA51D5F8C718DAE06FB2F75AC4796EBE65D22A88A22223B995679120E2D50E41AA49C260C046A35368846B0BECD0DFF3EBEB8AD4F835768F69B9ADF25C43D30E6B646F807FAA64AD59F61715C7A54127C4AACA98BA3006A9D792DAE165E0D59B61A01FB3A9F9D838D2DAE62445C86166
310
F37564E842E7DE6A69879FEEA2DD5AE7E371E1A5E025154AC307D06A03D73EB5978C58FFA4C8E9033066E0F3BD53BEC1F39F91BE7B55103791EDE6BBB991A2046172CB4581D8B893FA674DDA17A77B3B7C413D1B511FD2743BFF8A38F03A658705E3ADF8015C3A3417FF3D7E439FF591DA0B5F18BC20C1B8981957AE6392A3
310
F43C640C01D1A0B4728E2DD4F26DB4B3C3152A252A3B4E913CEC1C72F012782FF88EFF8637AA552DBEF76408E8A8DE9E50F9E1CB3A2DA0DB1B6039A893B56063DC5B3E3FFB5F72E67AB9FEB4AEC496C4F4C1149625DD662C53E89D7BF0F6151A046260D1337DFDC94502430F83B0EE07A130A224BCAD7DAE1D9FB6CD422FF6
310
920702629C4BB9AE79C12F243C6432A6794E18E5552BA56B431AAB5D91317302B2B071E86C3A42B1A02F999E24061403B5D0EB639195DA655DD3EBEAB4FB862DDF579F014AD0E73C22F99E28DA57FB98E75C6CA2D74D53086D600F4786E0FE3144B771A8A7B900F03594DB8A633CBC49B2EDB69228BB479CF863B5E807AAAB
310
23872F6DFEB4129B949CA33823F58830E86D65621E10047D9DB34D862E8EAC3C2ABC2F7B2C40D67CDFE01F5545B92105AF983AC54D93D69E56FB8E797F88913F898A9FEC705D3F9D1B54EC8426FB500D40A03BD0119B06E1B95DDC7EB8F6975367793EBD70E66733DFB9BC982F9CE564727731999F5D4ECFCE3B8D6A4DC2A0
310
6D50FD148437D110834A64C6CDDF57FBACB5C307A2A477DFE4939736CFEF2B175371E0E10CF0DD1D5C15654E0BCA14D1E87DD02FF93782A162C0A3D95F1524A52770F972BF1EE9809D13CE7DD599467F8ECE9ADD85CE85A34CD45355448C64F9E8A031DC2D596ACC6E5DD93D9B82DE2EF5CAF81363A8E47996A0DE24564A79
310
4115AACE09C55E14540231FDA13C319787134EBF34E3A022514E5B4D9E0826E25C02D5805B15ABE1BEF51B26383D445DD9E875EE33FE4C22DA16427D65A3BCA92CA6D28DD01DF5DC53330704308475351050232CCD31583787BA75774AFB06E5070DD0C8EF484E19968C5D83BA5B90B244D31E54D55A372320FE4786B7EA58
310
44E135AA5467CB7EA333A61683CC6A8C3257034C10CF46F40EF9F5BE59BE5BD30C3C72D235E95D10345C1D45445A5F0BB47E46A5EBE5570F9380B5FA629579952296A773720405982B9DE04011506178964401AA8BDF1FBF0A8EAB6861DD6580C0E38217056766716DAEB2D6FA0917D3E4116581EADB879C4E7CFFB11EFACD
310
3D641311495D92C8676CB409A72D18610D803CE8A626049E8EC1887CB5B44CC39883690DDA8399B4B9855B481E7D71D4A9D22F96E5BB73BF5793020C02137BF837504B0304140006080000CC70623B000000000000000000000000350000006662782F36394639363044362D344446342D343946362D394244322D32343142
310
43333846323333332F76657274696365732E62696E504B0304140006080800CC70623BF270F1330600000004000000360000006662782F36394639363044362D344446342D343946362D394244322D3234314243333846323333332F747269616E676C65732E62696E636660600000504B0304140006080000CC70623B0000
310
00000000000000000000370000006662782F36394639363044362D344446342D343946362D394244322D3234314243333846323333332F617474726962757465732E62696E504B0304140006080800CC70623B08DA0BD19000000041010000360000006662782F36394639363044362D344446342D343946362D394244322D
310
3234314243333846323333332F6469726563746F72792E786D6C858F410AC3201045AF22B36F53E9A60B35CBEEBAE80D244E44489C6234F4F835464A48035D0DF398FF9F8AF63D0E6CC63039F212F8F9020C7D47C6792B21C5FE7403D62A1188E2E60C98D7234A5830286103A55745067B9D86B8A3CF9C7F90C11DE607FB14
310
4396D7B6A82D282E9A152AD114D5EF2CB866EEE831B8EEA07A7BB5A8D7D61A2BAAEB7FD5F70921FF497D00504B0304140006080800CC70623BCA768048FE000000A00100003B0000006662782F36394639363044362D344446342D343946362D394244322D3234314243333846323333332F7265736F75726365732F636F72
310
652E786D6C8D50596E833010BD0A9ADFCA60D600328E9AA639412F609909B1126CE4A5EAF16B0295DABFFECC8CDEA2797AECF8353F924FB44E193D409E5248504B332A3D0D10FC95B4901C39B3C6F85F3248B49871801506CE266BC2B243D2688FDA47549B11775038871E12F988C7004EDE7016A9083E2ADC3D5D84BC8B09
310
D33C8D74D471E6BC8D0192EDC93A815B742658898E651BCB59086ADC356A8C3FD555A1055ED7E7E254D615792D0F075295F585746FF53B694EE78A565DD736979A65AB9933AFE69F8CD2A2F038022F28ED489E135A7CE4554F9BBEA85E68DB53CAB255FEC71496F19FA6A0B42F8B3DEE6673C0F318E4497096AD7DC5F52C33
310
EEB55BFE0D504B010214000A0000080000CC70623B3DEE336E79000000790000001B00000000000000000000000000000000006175746F6465736B2D64657369676E2D7061636B6167652E786D6C504B01021400140006080800CC70623BD486FD9CA0000000F40000001300000000000000000000000000B20000005B436F
310
6E74656E745F54797065735D2E786D6C504B01021400140006080800CC70623BD9DDAED0EC0000007C010000080000000000000000000000000083010000636F72652E786D6C504B01021400140006080800CC70623B55019EA25F0000007C000000070000000000000000000000000095020000636E782E786D6C504B0102
310
1400140006080800CC70623BA24EB22D72010000D40300000C00000000000000000000000000190300006662782F636F72652E786D6C504B01021400140006080800CC70623B408A7D3B7C0000009D0000000B00000000000000000000000000B50400006662782F636E782E786D6C504B01021400140006080800CC70623B
310
449FB9BD290100001202000031000000000000000000000000005A0500006662782F36394639363044362D344446342D343946362D394244322D3234314243333846323333332F636F72652E786D6C504B01021400140006080800CC70623BAD7543B64E010000330300003000000000000000000000000000D20600006662
310
782F36394639363044362D344446342D343946362D394244322D3234314243333846323333332F636E782E786D6C504B01021400140006080800CC70623B8D05915C650500003B10000034000000000000000000000000006E0800006662782F36394639363044362D344446342D343946362D394244322D32343142433338
310
46323333332F6F626A656374732E786D6C504B01021400140006080000CC70623B0000000000000000000000003500000000000000000000000000250E00006662782F36394639363044362D344446342D343946362D394244322D3234314243333846323333332F76657274696365732E62696E504B010214001400060808
310
00CC70623BF270F13306000000040000003600000000000000000000000000780E00006662782F36394639363044362D344446342D343946362D394244322D3234314243333846323333332F747269616E676C65732E62696E504B01021400140006080000CC70623B00000000000000000000000037000000000000000000
310
00000000D20E00006662782F36394639363044362D344446342D343946362D394244322D3234314243333846323333332F617474726962757465732E62696E504B01021400140006080800CC70623B08DA0BD190000000410100003600000000000000000000000000270F00006662782F36394639363044362D344446342D
310
343946362D394244322D3234314243333846323333332F6469726563746F72792E786D6C504B01021400140006080800CC70623BCA768048FE000000A00100003B000000000000000000000000000B1000006662782F36394639363044362D344446342D343946362D394244322D3234314243333846323333332F7265736F
310
75726365732F636F72652E786D6C504B0506000000000E000E0080040000621100000000
  0
XRECORD
  5
176
102
{ACAD_REACTORS
330
173
102
}
330
173
100
AcDbXrecord
280
     1
270
     1
271
     1
  0
XRECORD
  5
177
102
{ACAD_REACTORS
330
173
102
}
330
173
100
AcDbXrecord
280
     1
270
     1
271
     1
  0
XRECORD
  5
11A4
102
{ACAD_REACTORS
330
11A3
102
}
330
11A3
100
AcDbXrecord
280
     1
102
ACAD_ROUNDTRIP_2012_MLEADER_STYLE
298
     1
  0
XRECORD
  5
11B6
102
{ACAD_REACTORS
330
11B5
102
}
330
11B5
100
AcDbXrecord
280
     1
102
DISPLAYNAME
  1
Metric50
102
FLAGS
 90
        0
  0
CELLSTYLEMAP
  5
1176
102
{ACAD_REACTORS
330
162
102
}
330
162
100
AcDbCellStyleMap
 90
        3
300
CELLSTYLE
  1
TABLEFORMAT_BEGIN
 90
        5
170
     1
 91
        0
 92
    32768
 62
   257
 93
        1
300
CONTENTFORMAT
  1
CONTENTFORMAT_BEGIN
 90
        0
 91
        0
 92
      512
 93
        0
300

 40
0.0
140
1.0
 94
        5
 62
     0
340
11
144
6.0
309
CONTENTFORMAT_END
171
     1
301
MARGIN
  1
CELLMARGIN_BEGIN
 40
1.5
 40
1.5
 40
1.5
 40
1.5
 40
4.5
 40
4.5
309
CELLMARGIN_END
 94
        6
 95
        1
302
GRIDFORMAT
  1
GRIDFORMAT_BEGIN
 90
        0
 91
        1
 62
     0
 92
       -2
340
14
 93
        0
 40
1.125
309
GRIDFORMAT_END
 95
        2
302
GRIDFORMAT
  1
GRIDFORMAT_BEGIN
 90
        0
 91
        1
 62
     0
 92
       -2
340
14
 93
        0
 40
1.125
309
GRIDFORMAT_END
 95
        4
302
GRIDFORMAT
  1
GRIDFORMAT_BEGIN
 90
        0
 91
        1
 62
     0
 92
       -2
340
14
 93
        0
 40
1.125
309
GRIDFORMAT_END
 95
        8
302
GRIDFORMAT
  1
GRIDFORMAT_BEGIN
 90
        0
 91
        1
 62
     0
 92
       -2
340
14
 93
        0
 40
1.125
309
GRIDFORMAT_END
 95
       16
302
GRIDFORMAT
  1
GRIDFORMAT_BEGIN
 90
        0
 91
        1
 62
     0
 92
       -2
340
14
 93
        0
 40
1.125
309
GRIDFORMAT_END
 95
       32
302
GRIDFORMAT
  1
GRIDFORMAT_BEGIN
 90
        0
 91
        1
 62
     0
 92
       -2
340
14
 93
        0
 40
1.125
309
GRIDFORMAT_END
309
TABLEFORMAT_END
  1
CELLSTYLE_BEGIN
 90
        1
 91
        1
300
_TITLE
309
CELLSTYLE_END
300
CELLSTYLE
  1
TABLEFORMAT_BEGIN
 90
        5
170
     1
 91
        0
 92
        0
 62
   257
 93
        1
300
CONTENTFORMAT
  1
CONTENTFORMAT_BEGIN
 90
        0
 91
        0
 92
      512
 93
        0
300

 40
0.0
140
1.0
 94
        5
 62
     0
340
11
144
4.5
309
CONTENTFORMAT_END
171
     1
301
MARGIN
  1
CELLMARGIN_BEGIN
 40
1.5
 40
1.5
 40
1.5
 40
1.5
 40
4.5
 40
4.5
309
CELLMARGIN_END
 94
        6
 95
        1
302
GRIDFORMAT
  1
GRIDFORMAT_BEGIN
 90
        0
 91
        1
 62
     0
 92
       -2
340
14
 93
        0
 40
1.125
309
GRIDFORMAT_END
 95
        2
302
GRIDFORMAT
  1
GRIDFORMAT_BEGIN
 90
        0
 91
        1
 62
     0
 92
       -2
340
14
 93
        0
 40
1.125
309
GRIDFORMAT_END
 95
        4
302
GRIDFORMAT
  1
GRIDFORMAT_BEGIN
 90
        0
 91
        1
 62
     0
 92
       -2
340
14
 93
        0
 40
1.125
309
GRIDFORMAT_END
 95
        8
302
GRIDFORMAT
  1
GRIDFORMAT_BEGIN
 90
        0
 91
        1
 62
     0
 92
       -2
340
14
 93
        0
 40
1.125
309
GRIDFORMAT_END
 95
       16
302
GRIDFORMAT
  1
GRIDFORMAT_BEGIN
 90
        0
 91
        1
 62
     0
 92
       -2
340
14
 93
        0
 40
1.125
309
GRIDFORMAT_END
 95
       32
302
GRIDFORMAT
  1
GRIDFORMAT_BEGIN
 90
        0
 91
        1
 62
     0
 92
       -2
340
14
 93
        0
 40
1.125
309
GRIDFORMAT_END
309
TABLEFORMAT_END
  1
CELLSTYLE_BEGIN
 90
        2
 91
        1
300
_HEADER
309
CELLSTYLE_END
300
CELLSTYLE
  1
TABLEFORMAT_BEGIN
 90
        5
170
     1
 91
        0
 92
        0
 62
   257
 93
        1
300
CONTENTFORMAT
  1
CONTENTFORMAT_BEGIN
 90
        0
 91
        0
 92
      512
 93
        0
300

 40
0.0
140
1.0
 94
        2
 62
     0
340
11
144
4.5
309
CONTENTFORMAT_END
171
     1
301
MARGIN
  1
CELLMARGIN_BEGIN
 40
1.5
 40
1.5
 40
1.5
 40
1.5
 40
4.5
 40
4.5
309
CELLMARGIN_END
 94
        6
 95
        1
302
GRIDFORMAT
  1
GRIDFORMAT_BEGIN
 90
        0
 91
        1
 62
     0
 92
       -2
340
14
 93
        0
 40
1.125
309
GRIDFORMAT_END
 95
        2
302
GRIDFORMAT
  1
GRIDFORMAT_BEGIN
 90
        0
 91
        1
 62
     0
 92
       -2
340
14
 93
        0
 40
1.125
309
GRIDFORMAT_END
 95
        4
302
GRIDFORMAT
  1
GRIDFORMAT_BEGIN
 90
        0
 91
        1
 62
     0
 92
       -2
340
14
 93
        0
 40
1.125
309
GRIDFORMAT_END
 95
        8
302
GRIDFORMAT
  1
GRIDFORMAT_BEGIN
 90
        0
 91
        1
 62
     0
 92
       -2
340
14
 93
        0
 40
1.125
309
GRIDFORMAT_END
 95
       16
302
GRIDFORMAT
  1
GRIDFORMAT_BEGIN
 90
        0
 91
        1
 62
     0
 92
       -2
340
14
 93
        0
 40
1.125
309
GRIDFORMAT_END
 95
       32
302
GRIDFORMAT
  1
GRIDFORMAT_BEGIN
 90
        0
 91
        1
 62
     0
 92
       -2
340
14
 93
        0
 40
1.125
309
GRIDFORMAT_END
309
TABLEFORMAT_END
  1
CELLSTYLE_BEGIN
 90
        3
 91
        2
300
_DATA
309
CELLSTYLE_END
  0
XRECORD
  5
117B
102
{ACAD_REACTORS
330
162
102
}
330
162
100
AcDbXrecord
280
     1
102
ACAD_ROUNDTRIP_PRE2007_TABLESTYLE
 90
      512
 91
        0
  1

 92
      512
 93
        0
  2

 94
      512
 95
        0
  3

  0
XRECORD
  5
118E
102
{ACAD_REACTORS
330
118D
102
}
330
118D
100
AcDbXrecord
280
     1
102
RTVSPost2010Prop28
280
     1
102
RTVSPost2010PropOp28
 70
     1
102
RTVSPost2010Prop29
280
     1
102
RTVSPost2010PropOp29
 70
     1
102
RTVSPost2010Prop30
280
     0
102
RTVSPost2010PropOp30
 70
     1
102
RTVSPost2010Prop31
280
     0
102
RTVSPost2010PropOp31
 70
     1
102
RTVSPost2010Prop32
280
     0
102
RTVSPost2010PropOp32
 70
     1
102
RTVSPost2010Prop33
280
     0
102
RTVSPost2010PropOp33
 70
     1
102
RTVSPost2010Prop34
280
     0
102
RTVSPost2010PropOp34
 70
     1
102
RTVSPost2010Prop35
280
     0
102
RTVSPost2010PropOp35
 70
     1
102
RTVSPost2010Prop36
280
     0
102
RTVSPost2010PropOp36
 70
     1
102
RTVSPost2010Prop37
 90
       50
102
RTVSPost2010PropOp37
 70
     1
102
RTVSPost2010Prop38
140
0.0
102
RTVSPost2010PropOp38
 70
     1
102
RTVSPost2010Prop39
140
1.0
102
RTVSPost2010PropOp39
 70
     1
102
RTVSPost2010Prop40
 90
        0
102
RTVSPost2010PropOp40
 70
     1
102
RTVSPost2010Prop41ColorIndex
 90
       18
102
RTVSPost2010Prop41ColorRGB
 90
        0
102
RTVSPost2010PropOp41
 70
     1
102
RTVSPost2010Prop42
 90
       50
102
RTVSPost2010PropOp42
 70
     1
102
RTVSPost2010Prop43
 90
        3
102
RTVSPost2010PropOp43
 70
     1
102
RTVSPost2010Prop44ColorIndex
 90
        5
102
RTVSPost2010Prop44ColorRGB
 90
      255
102
RTVSPost2010PropOp44
 70
     1
102
RTVSPost2010Prop45
280
     0
102
RTVSPost2010PropOp45
 70
     1
102
RTVSPost2010Prop46
 90
       50
102
RTVSPost2010PropOp46
 70
     1
102
RTVSPost2010Prop47
 90
       50
102
RTVSPost2010PropOp47
 70
     1
102
RTVSPost2010Prop48
 90
       50
102
RTVSPost2010PropOp48
 70
     1
102
RTVSPost2010Prop49
280
     0
102
RTVSPost2010PropOp49
 70
     1
102
RTVSPost2010Prop50
 90
       50
102
RTVSPost2010PropOp50
 70
     1
102
RTVSPost2010Prop51ColorIndex
 90
      256
102
RTVSPost2010Prop51ColorRGB
 90
-16777216
102
RTVSPost2010PropOp51
 70
     0
102
RTVSPost2010Prop52
140
1.0
102
RTVSPost2010PropOp52
 70
     0
102
RTVSPost2010Prop53
 90
        2
102
RTVSPost2010PropOp53
 70
     1
102
RTVSPost2010Prop54
  1
strokes_ogs.tif
102
RTVSPost2010PropOp54
 70
     1
102
RTVSPost2010Prop55
280
     0
102
RTVSPost2010PropOp55
 70
     1
102
RTVSPost2010Prop56
140
1.0
102
RTVSPost2010PropOp56
 70
     1
102
RTVSPost2010Prop57
140
1.0
102
RTVSPost2010PropOp57
 70
     1
102
RTVSPropertyOp0
 70
     1
102
RTVSPropertyOp1
 70
     1
102
RTVSPropertyOp2
 70
     1
102
RTVSPropertyOp3
 70
     1
102
RTVSPropertyOp4
 70
     1
102
RTVSPropertyOp5
 70
     1
102
RTVSPropertyOp6
 70
     1
102
RTVSPropertyOp7
 70
     1
102
RTVSPropertyOp8
 70
     1
102
RTVSPropertyOp9
 70
     1
102
RTVSPropertyOp10
 70
     1
102
RTVSPropertyOp11
 70
     1
102
RTVSPropertyOp12
 70
     1
102
RTVSPropertyOp13
 70
     1
102
RTVSPropertyOp14
 70
     1
102
RTVSPropertyOp15
 70
     1
102
RTVSPropertyOp16
 70
     1
102
RTVSPropertyOp17
 70
     1
102
RTVSPropertyOp18
 70
     1
102
RTVSPropertyOp19
 70
     1
102
RTVSPropertyOp20
 70
     1
102
RTVSPropertyOp21
 70
     1
102
RTVSPropertyOp22
 70
     1
102
RTVSPropertyOp23
 70
     1
102
RTVSPropertyOp24
 70
     1
102
RTVSPropertyOp25
 70
     1
102
RTVSPropertyOp26
 70
     1
102
RTVSPropertyOp27
 70
     1
102
RTVSPropertyOp28
 70
     1
102
RTVSPropertyOp29
 70
     1
102
RTVSPropertyOp30
 70
     1
102
RTVSPropertyOp31
 70
     1
102
RTVSPropertyOp32
 70
     1
102
RTVSPropertyOp33
 70
     1
102
RTVSPropertyOp34
 70
     1
102
RTVSPropertyOp35
 70
     1
102
RTVSPropertyOp36
 70
     1
102
RTVSPropertyOp37
 70
     1
102
RTVSPropertyOp38
 70
     1
102
RTVSPropertyOp39
 70
     1
102
RTVSPropertyOp40
 70
     1
102
RTVSPropertyOp41
 70
     1
102
RTVSPropertyOp42
 70
     1
102
RTVSPropertyOp43
 70
     1
102
RTVSPropertyOp44
 70
     1
102
RTVSPropertyOp45
 70
     1
102
RTVSPropertyOp46
 70
     1
102
RTVSPropertyOp47
 70
     1
102
RTVSPropertyOp48
 70
     1
102
RTVSPropertyOp49
 70
     1
102
RTVSPropertyOp50
 70
     1
102
RTVSPropertyOp51
 70
     0
102
RTVSPropertyOp52
 70
     0
102
RTVSPropertyOp53
 70
     1
102
RTVSPropertyOp54
 70
     1
102
RTVSPropertyOp55
 70
     1
102
RTVSPropertyOp56
 70
     1
102
RTVSPropertyOp57
 70
     1
102
RTVSPropertyOp58
 70
     1
102
RTVSPropertyOp59
 70
     1
102
RTVSPropertyOp60
 70
     1
102
RTVSPropertyOp61
 70
     1
102
RTVSPropertyOp62
 70
     1
  0
XRECORD
  5
118C
102
{ACAD_REACTORS
330
118B
102
}
330
118B
100
AcDbXrecord
280
     1
102
RTVSPost2010Prop28
280
     0
102
RTVSPost2010PropOp28
 70
     1
102
RTVSPost2010Prop29
280
     1
102
RTVSPost2010PropOp29
 70
     1
102
RTVSPost2010Prop30
280
     1
102
RTVSPost2010PropOp30
 70
     1
102
RTVSPost2010Prop31
280
     0
102
RTVSPost2010PropOp31
 70
     1
102
RTVSPost2010Prop32
280
     0
102
RTVSPost2010PropOp32
 70
     1
102
RTVSPost2010Prop33
280
     0
102
RTVSPost2010PropOp33
 70
     1
102
RTVSPost2010Prop34
280
     0
102
RTVSPost2010PropOp34
 70
     1
102
RTVSPost2010Prop35
280
     0
102
RTVSPost2010PropOp35
 70
     1
102
RTVSPost2010Prop36
280
     0
102
RTVSPost2010PropOp36
 70
     1
102
RTVSPost2010Prop37
 90
       50
102
RTVSPost2010PropOp37
 70
     1
102
RTVSPost2010Prop38
140
0.0
102
RTVSPost2010PropOp38
 70
     1
102
RTVSPost2010Prop39
140
1.0
102
RTVSPost2010PropOp39
 70
     1
102
RTVSPost2010Prop40
 90
        0
102
RTVSPost2010PropOp40
 70
     1
102
RTVSPost2010Prop41ColorIndex
 90
       18
102
RTVSPost2010Prop41ColorRGB
 90
        0
102
RTVSPost2010PropOp41
 70
     1
102
RTVSPost2010Prop42
 90
       50
102
RTVSPost2010PropOp42
 70
     1
102
RTVSPost2010Prop43
 90
        3
102
RTVSPost2010PropOp43
 70
     1
102
RTVSPost2010Prop44ColorIndex
 90
        5
102
RTVSPost2010Prop44ColorRGB
 90
      255
102
RTVSPost2010PropOp44
 70
     1
102
RTVSPost2010Prop45
280
     0
102
RTVSPost2010PropOp45
 70
     1
102
RTVSPost2010Prop46
 90
       50
102
RTVSPost2010PropOp46
 70
     1
102
RTVSPost2010Prop47
 90
       50
102
RTVSPost2010PropOp47
 70
     1
102
RTVSPost2010Prop48
 90
       50
102
RTVSPost2010PropOp48
 70
     1
102
RTVSPost2010Prop49
280
     0
102
RTVSPost2010PropOp49
 70
     1
102
RTVSPost2010Prop50
 90
       50
102
RTVSPost2010PropOp50
 70
     1
102
RTVSPost2010Prop51ColorIndex
 90
      256
102
RTVSPost2010Prop51ColorRGB
 90
-16777216
102
RTVSPost2010PropOp51
 70
     0
102
RTVSPost2010Prop52
140
1.0
102
RTVSPost2010PropOp52
 70
     0
102
RTVSPost2010Prop53
 90
        2
102
RTVSPost2010PropOp53
 70
     1
102
RTVSPost2010Prop54
  1
strokes_ogs.tif
102
RTVSPost2010PropOp54
 70
     1
102
RTVSPost2010Prop55
280
     0
102
RTVSPost2010PropOp55
 70
     1
102
RTVSPost2010Prop56
140
1.0
102
RTVSPost2010PropOp56
 70
     1
102
RTVSPost2010Prop57
140
1.0
102
RTVSPost2010PropOp57
 70
     1
102
RTVSPropertyOp0
 70
     1
102
RTVSPropertyOp1
 70
     1
102
RTVSPropertyOp2
 70
     1
102
RTVSPropertyOp3
 70
     1
102
RTVSPropertyOp4
 70
     1
102
RTVSPropertyOp5
 70
     1
102
RTVSPropertyOp6
 70
     1
102
RTVSPropertyOp7
 70
     1
102
RTVSPropertyOp8
 70
     1
102
RTVSPropertyOp9
 70
     1
102
RTVSPropertyOp10
 70
     1
102
RTVSPropertyOp11
 70
     1
102
RTVSPropertyOp12
 70
     1
102
RTVSPropertyOp13
 70
     1
102
RTVSPropertyOp14
 70
     1
102
RTVSPropertyOp15
 70
     1
102
RTVSPropertyOp16
 70
     1
102
RTVSPropertyOp17
 70
     1
102
RTVSPropertyOp18
 70
     1
102
RTVSPropertyOp19
 70
     1
102
RTVSPropertyOp20
 70
     1
102
RTVSPropertyOp21
 70
     1
102
RTVSPropertyOp22
 70
     1
102
RTVSPropertyOp23
 70
     1
102
RTVSPropertyOp24
 70
     1
102
RTVSPropertyOp25
 70
     1
102
RTVSPropertyOp26
 70
     1
102
RTVSPropertyOp27
 70
     1
102
RTVSPropertyOp28
 70
     1
102
RTVSPropertyOp29
 70
     1
102
RTVSPropertyOp30
 70
     1
102
RTVSPropertyOp31
 70
     1
102
RTVSPropertyOp32
 70
     1
102
RTVSPropertyOp33
 70
     1
102
RTVSPropertyOp34
 70
     1
102
RTVSPropertyOp35
 70
     1
102
RTVSPropertyOp36
 70
     1
102
RTVSPropertyOp37
 70
     1
102
RTVSPropertyOp38
 70
     1
102
RTVSPropertyOp39
 70
     1
102
RTVSPropertyOp40
 70
     1
102
RTVSPropertyOp41
 70
     1
102
RTVSPropertyOp42
 70
     1
102
RTVSPropertyOp43
 70
     1
102
RTVSPropertyOp44
 70
     1
102
RTVSPropertyOp45
 70
     1
102
RTVSPropertyOp46
 70
     1
102
RTVSPropertyOp47
 70
     1
102
RTVSPropertyOp48
 70
     1
102
RTVSPropertyOp49
 70
     1
102
RTVSPropertyOp50
 70
     1
102
RTVSPropertyOp51
 70
     0
102
RTVSPropertyOp52
 70
     0
102
RTVSPropertyOp53
 70
     1
102
RTVSPropertyOp54
 70
     1
102
RTVSPropertyOp55
 70
     1
102
RTVSPropertyOp56
 70
     1
102
RTVSPropertyOp57
 70
     1
102
RTVSPropertyOp58
 70
     1
102
RTVSPropertyOp59
 70
     1
102
RTVSPropertyOp60
 70
     1
102
RTVSPropertyOp61
 70
     1
102
RTVSPropertyOp62
 70
     1
  0
XRECORD
  5
119A
102
{ACAD_REACTORS
330
1199
102
}
330
1199
100
AcDbXrecord
280
     1
102
RTVSPost2010Prop28
280
     0
102
RTVSPost2010PropOp28
 70
     1
102
RTVSPost2010Prop29
280
     1
102
RTVSPost2010PropOp29
 70
     1
102
RTVSPost2010Prop30
280
     1
102
RTVSPost2010PropOp30
 70
     1
102
RTVSPost2010Prop31
280
     0
102
RTVSPost2010PropOp31
 70
     1
102
RTVSPost2010Prop32
280
     0
102
RTVSPost2010PropOp32
 70
     1
102
RTVSPost2010Prop33
280
     0
102
RTVSPost2010PropOp33
 70
     1
102
RTVSPost2010Prop34
280
     0
102
RTVSPost2010PropOp34
 70
     1
102
RTVSPost2010Prop35
280
     0
102
RTVSPost2010PropOp35
 70
     1
102
RTVSPost2010Prop36
280
     0
102
RTVSPost2010PropOp36
 70
     1
102
RTVSPost2010Prop37
 90
       50
102
RTVSPost2010PropOp37
 70
     1
102
RTVSPost2010Prop38
140
0.0
102
RTVSPost2010PropOp38
 70
     1
102
RTVSPost2010Prop39
140
1.0
102
RTVSPost2010PropOp39
 70
     1
102
RTVSPost2010Prop40
 90
        0
102
RTVSPost2010PropOp40
 70
     1
102
RTVSPost2010Prop41ColorIndex
 90
       18
102
RTVSPost2010Prop41ColorRGB
 90
        0
102
RTVSPost2010PropOp41
 70
     1
102
RTVSPost2010Prop42
 90
       50
102
RTVSPost2010PropOp42
 70
     1
102
RTVSPost2010Prop43
 90
        3
102
RTVSPost2010PropOp43
 70
     1
102
RTVSPost2010Prop44ColorIndex
 90
        5
102
RTVSPost2010Prop44ColorRGB
 90
      255
102
RTVSPost2010PropOp44
 70
     1
102
RTVSPost2010Prop45
280
     0
102
RTVSPost2010PropOp45
 70
     1
102
RTVSPost2010Prop46
 90
       50
102
RTVSPost2010PropOp46
 70
     1
102
RTVSPost2010Prop47
 90
       50
102
RTVSPost2010PropOp47
 70
     1
102
RTVSPost2010Prop48
 90
       50
102
RTVSPost2010PropOp48
 70
     1
102
RTVSPost2010Prop49
280
     0
102
RTVSPost2010PropOp49
 70
     1
102
RTVSPost2010Prop50
 90
       50
102
RTVSPost2010PropOp50
 70
     1
102
RTVSPost2010Prop51ColorIndex
 90
      256
102
RTVSPost2010Prop51ColorRGB
 90
-16777216
102
RTVSPost2010PropOp51
 70
     0
102
RTVSPost2010Prop52
140
1.0
102
RTVSPost2010PropOp52
 70
     0
102
RTVSPost2010Prop53
 90
        2
102
RTVSPost2010PropOp53
 70
     1
102
RTVSPost2010Prop54
  1
strokes_ogs.tif
102
RTVSPost2010PropOp54
 70
     1
102
RTVSPost2010Prop55
280
     0
102
RTVSPost2010PropOp55
 70
     1
102
RTVSPost2010Prop56
140
1.0
102
RTVSPost2010PropOp56
 70
     1
102
RTVSPost2010Prop57
140
1.0
102
RTVSPost2010PropOp57
 70
     1
102
RTVSPropertyOp0
 70
     1
102
RTVSPropertyOp1
 70
     1
102
RTVSPropertyOp2
 70
     1
102
RTVSPropertyOp3
 70
     1
102
RTVSPropertyOp4
 70
     1
102
RTVSPropertyOp5
 70
     1
102
RTVSPropertyOp6
 70
     1
102
RTVSPropertyOp7
 70
     1
102
RTVSPropertyOp8
 70
     1
102
RTVSPropertyOp9
 70
     1
102
RTVSPropertyOp10
 70
     1
102
RTVSPropertyOp11
 70
     1
102
RTVSPropertyOp12
 70
     1
102
RTVSPropertyOp13
 70
     1
102
RTVSPropertyOp14
 70
     1
102
RTVSPropertyOp15
 70
     1
102
RTVSPropertyOp16
 70
     1
102
RTVSPropertyOp17
 70
     1
102
RTVSPropertyOp18
 70
     1
102
RTVSPropertyOp19
 70
     1
102
RTVSPropertyOp20
 70
     1
102
RTVSPropertyOp21
 70
     1
102
RTVSPropertyOp22
 70
     1
102
RTVSPropertyOp23
 70
     1
102
RTVSPropertyOp24
 70
     1
102
RTVSPropertyOp25
 70
     1
102
RTVSPropertyOp26
 70
     1
102
RTVSPropertyOp27
 70
     1
102
RTVSPropertyOp28
 70
     1
102
RTVSPropertyOp29
 70
     1
102
RTVSPropertyOp30
 70
     1
102
RTVSPropertyOp31
 70
     1
102
RTVSPropertyOp32
 70
     1
102
RTVSPropertyOp33
 70
     1
102
RTVSPropertyOp34
 70
     1
102
RTVSPropertyOp35
 70
     1
102
RTVSPropertyOp36
 70
     1
102
RTVSPropertyOp37
 70
     1
102
RTVSPropertyOp38
 70
     1
102
RTVSPropertyOp39
 70
     1
102
RTVSPropertyOp40
 70
     1
102
RTVSPropertyOp41
 70
     1
102
RTVSPropertyOp42
 70
     1
102
RTVSPropertyOp43
 70
     1
102
RTVSPropertyOp44
 70
     1
102
RTVSPropertyOp45
 70
     1
102
RTVSPropertyOp46
 70
     1
102
RTVSPropertyOp47
 70
     1
102
RTVSPropertyOp48
 70
     1
102
RTVSPropertyOp49
 70
     1
102
RTVSPropertyOp50
 70
     1
102
RTVSPropertyOp51
 70
     0
102
RTVSPropertyOp52
 70
     0
102
RTVSPropertyOp53
 70
     1
102
RTVSPropertyOp54
 70
     1
102
RTVSPropertyOp55
 70
     1
102
RTVSPropertyOp56
 70
     1
102
RTVSPropertyOp57
 70
     1
102
RTVSPropertyOp58
 70
     1
102
RTVSPropertyOp59
 70
     1
102
RTVSPropertyOp60
 70
     1
102
RTVSPropertyOp61
 70
     1
102
RTVSPropertyOp62
 70
     1
  0
XRECORD
  5
11A2
102
{ACAD_REACTORS
330
11A1
102
}
330
11A1
100
AcDbXrecord
280
     1
102
RTVSPost2010Prop28
280
     0
102
RTVSPost2010PropOp28
 70
     1
102
RTVSPost2010Prop29
280
     1
102
RTVSPost2010PropOp29
 70
     1
102
RTVSPost2010Prop30
280
     1
102
RTVSPost2010PropOp30
 70
     1
102
RTVSPost2010Prop31
280
     0
102
RTVSPost2010PropOp31
 70
     1
102
RTVSPost2010Prop32
280
     0
102
RTVSPost2010PropOp32
 70
     1
102
RTVSPost2010Prop33
280
     0
102
RTVSPost2010PropOp33
 70
     1
102
RTVSPost2010Prop34
280
     0
102
RTVSPost2010PropOp34
 70
     1
102
RTVSPost2010Prop35
280
     0
102
RTVSPost2010PropOp35
 70
     1
102
RTVSPost2010Prop36
280
     0
102
RTVSPost2010PropOp36
 70
     1
102
RTVSPost2010Prop37
 90
       50
102
RTVSPost2010PropOp37
 70
     1
102
RTVSPost2010Prop38
140
0.0
102
RTVSPost2010PropOp38
 70
     1
102
RTVSPost2010Prop39
140
1.0
102
RTVSPost2010PropOp39
 70
     1
102
RTVSPost2010Prop40
 90
        0
102
RTVSPost2010PropOp40
 70
     1
102
RTVSPost2010Prop41ColorIndex
 90
       18
102
RTVSPost2010Prop41ColorRGB
 90
        0
102
RTVSPost2010PropOp41
 70
     1
102
RTVSPost2010Prop42
 90
       50
102
RTVSPost2010PropOp42
 70
     1
102
RTVSPost2010Prop43
 90
        3
102
RTVSPost2010PropOp43
 70
     1
102
RTVSPost2010Prop44ColorIndex
 90
        5
102
RTVSPost2010Prop44ColorRGB
 90
      255
102
RTVSPost2010PropOp44
 70
     1
102
RTVSPost2010Prop45
280
     0
102
RTVSPost2010PropOp45
 70
     1
102
RTVSPost2010Prop46
 90
       50
102
RTVSPost2010PropOp46
 70
     1
102
RTVSPost2010Prop47
 90
       50
102
RTVSPost2010PropOp47
 70
     1
102
RTVSPost2010Prop48
 90
       50
102
RTVSPost2010PropOp48
 70
     1
102
RTVSPost2010Prop49
280
     0
102
RTVSPost2010PropOp49
 70
     1
102
RTVSPost2010Prop50
 90
       50
102
RTVSPost2010PropOp50
 70
     1
102
RTVSPost2010Prop51ColorIndex
 90
      256
102
RTVSPost2010Prop51ColorRGB
 90
-16777216
102
RTVSPost2010PropOp51
 70
     0
102
RTVSPost2010Prop52
140
1.0
102
RTVSPost2010PropOp52
 70
     0
102
RTVSPost2010Prop53
 90
        2
102
RTVSPost2010PropOp53
 70
     1
102
RTVSPost2010Prop54
  1
strokes_ogs.tif
102
RTVSPost2010PropOp54
 70
     1
102
RTVSPost2010Prop55
280
     0
102
RTVSPost2010PropOp55
 70
     1
102
RTVSPost2010Prop56
140
1.0
102
RTVSPost2010PropOp56
 70
     1
102
RTVSPost2010Prop57
140
1.0
102
RTVSPost2010PropOp57
 70
     1
102
RTVSPropertyOp0
 70
     1
102
RTVSPropertyOp1
 70
     1
102
RTVSPropertyOp2
 70
     1
102
RTVSPropertyOp3
 70
     1
102
RTVSPropertyOp4
 70
     1
102
RTVSPropertyOp5
 70
     1
102
RTVSPropertyOp6
 70
     1
102
RTVSPropertyOp7
 70
     1
102
RTVSPropertyOp8
 70
     1
102
RTVSPropertyOp9
 70
     1
102
RTVSPropertyOp10
 70
     1
102
RTVSPropertyOp11
 70
     1
102
RTVSPropertyOp12
 70
     1
102
RTVSPropertyOp13
 70
     1
102
RTVSPropertyOp14
 70
     1
102
RTVSPropertyOp15
 70
     1
102
RTVSPropertyOp16
 70
     1
102
RTVSPropertyOp17
 70
     1
102
RTVSPropertyOp18
 70
     1
102
RTVSPropertyOp19
 70
     1
102
RTVSPropertyOp20
 70
     1
102
RTVSPropertyOp21
 70
     1
102
RTVSPropertyOp22
 70
     1
102
RTVSPropertyOp23
 70
     1
102
RTVSPropertyOp24
 70
     1
102
RTVSPropertyOp25
 70
     1
102
RTVSPropertyOp26
 70
     1
102
RTVSPropertyOp27
 70
     1
102
RTVSPropertyOp28
 70
     1
102
RTVSPropertyOp29
 70
     1
102
RTVSPropertyOp30
 70
     1
102
RTVSPropertyOp31
 70
     1
102
RTVSPropertyOp32
 70
     1
102
RTVSPropertyOp33
 70
     1
102
RTVSPropertyOp34
 70
     1
102
RTVSPropertyOp35
 70
     1
102
RTVSPropertyOp36
 70
     1
102
RTVSPropertyOp37
 70
     1
102
RTVSPropertyOp38
 70
     1
102
RTVSPropertyOp39
 70
     1
102
RTVSPropertyOp40
 70
     1
102
RTVSPropertyOp41
 70
     1
102
RTVSPropertyOp42
 70
     1
102
RTVSPropertyOp43
 70
     1
102
RTVSPropertyOp44
 70
     1
102
RTVSPropertyOp45
 70
     1
102
RTVSPropertyOp46
 70
     1
102
RTVSPropertyOp47
 70
     1
102
RTVSPropertyOp48
 70
     1
102
RTVSPropertyOp49
 70
     1
102
RTVSPropertyOp50
 70
     1
102
RTVSPropertyOp51
 70
     0
102
RTVSPropertyOp52
 70
     0
102
RTVSPropertyOp53
 70
     1
102
RTVSPropertyOp54
 70
     1
102
RTVSPropertyOp55
 70
     1
102
RTVSPropertyOp56
 70
     1
102
RTVSPropertyOp57
 70
     1
102
RTVSPropertyOp58
 70
     1
102
RTVSPropertyOp59
 70
     1
102
RTVSPropertyOp60
 70
     1
102
RTVSPropertyOp61
 70
     1
102
RTVSPropertyOp62
 70
     1
  0
XRECORD
  5
1194
102
{ACAD_REACTORS
330
1193
102
}
330
1193
100
AcDbXrecord
280
     1
102
RTVSPost2010Prop28
280
     0
102
RTVSPost2010PropOp28
 70
     1
102
RTVSPost2010Prop29
280
     1
102
RTVSPost2010PropOp29
 70
     1
102
RTVSPost2010Prop30
280
     1
102
RTVSPost2010PropOp30
 70
     1
102
RTVSPost2010Prop31
280
     0
102
RTVSPost2010PropOp31
 70
     1
102
RTVSPost2010Prop32
280
     0
102
RTVSPost2010PropOp32
 70
     1
102
RTVSPost2010Prop33
280
     0
102
RTVSPost2010PropOp33
 70
     1
102
RTVSPost2010Prop34
280
     0
102
RTVSPost2010PropOp34
 70
     1
102
RTVSPost2010Prop35
280
     0
102
RTVSPost2010PropOp35
 70
     1
102
RTVSPost2010Prop36
280
     0
102
RTVSPost2010PropOp36
 70
     1
102
RTVSPost2010Prop37
 90
       50
102
RTVSPost2010PropOp37
 70
     1
102
RTVSPost2010Prop38
140
0.0
102
RTVSPost2010PropOp38
 70
     1
102
RTVSPost2010Prop39
140
1.0
102
RTVSPost2010PropOp39
 70
     1
102
RTVSPost2010Prop40
 90
        0
102
RTVSPost2010PropOp40
 70
     1
102
RTVSPost2010Prop41ColorIndex
 90
       18
102
RTVSPost2010Prop41ColorRGB
 90
        0
102
RTVSPost2010PropOp41
 70
     1
102
RTVSPost2010Prop42
 90
       50
102
RTVSPost2010PropOp42
 70
     1
102
RTVSPost2010Prop43
 90
        3
102
RTVSPost2010PropOp43
 70
     1
102
RTVSPost2010Prop44ColorIndex
 90
        5
102
RTVSPost2010Prop44ColorRGB
 90
      255
102
RTVSPost2010PropOp44
 70
     1
102
RTVSPost2010Prop45
280
     0
102
RTVSPost2010PropOp45
 70
     1
102
RTVSPost2010Prop46
 90
       50
102
RTVSPost2010PropOp46
 70
     1
102
RTVSPost2010Prop47
 90
       50
102
RTVSPost2010PropOp47
 70
     1
102
RTVSPost2010Prop48
 90
       50
102
RTVSPost2010PropOp48
 70
     1
102
RTVSPost2010Prop49
280
     0
102
RTVSPost2010PropOp49
 70
     1
102
RTVSPost2010Prop50
 90
       50
102
RTVSPost2010PropOp50
 70
     1
102
RTVSPost2010Prop51ColorIndex
 90
      256
102
RTVSPost2010Prop51ColorRGB
 90
-16777216
102
RTVSPost2010PropOp51
 70
     0
102
RTVSPost2010Prop52
140
1.0
102
RTVSPost2010PropOp52
 70
     0
102
RTVSPost2010Prop53
 90
        2
102
RTVSPost2010PropOp53
 70
     1
102
RTVSPost2010Prop54
  1
strokes_ogs.tif
102
RTVSPost2010PropOp54
 70
     1
102
RTVSPost2010Prop55
280
     0
102
RTVSPost2010PropOp55
 70
     1
102
RTVSPost2010Prop56
140
1.0
102
RTVSPost2010PropOp56
 70
     1
102
RTVSPost2010Prop57
140
1.0
102
RTVSPost2010PropOp57
 70
     1
102
RTVSPropertyOp0
 70
     1
102
RTVSPropertyOp1
 70
     1
102
RTVSPropertyOp2
 70
     1
102
RTVSPropertyOp3
 70
     1
102
RTVSPropertyOp4
 70
     1
102
RTVSPropertyOp5
 70
     1
102
RTVSPropertyOp6
 70
     1
102
RTVSPropertyOp7
 70
     1
102
RTVSPropertyOp8
 70
     1
102
RTVSPropertyOp9
 70
     1
102
RTVSPropertyOp10
 70
     1
102
RTVSPropertyOp11
 70
     1
102
RTVSPropertyOp12
 70
     1
102
RTVSPropertyOp13
 70
     1
102
RTVSPropertyOp14
 70
     1
102
RTVSPropertyOp15
 70
     1
102
RTVSPropertyOp16
 70
     1
102
RTVSPropertyOp17
 70
     1
102
RTVSPropertyOp18
 70
     1
102
RTVSPropertyOp19
 70
     1
102
RTVSPropertyOp20
 70
     1
102
RTVSPropertyOp21
 70
     1
102
RTVSPropertyOp22
 70
     1
102
RTVSPropertyOp23
 70
     1
102
RTVSPropertyOp24
 70
     1
102
RTVSPropertyOp25
 70
     1
102
RTVSPropertyOp26
 70
     1
102
RTVSPropertyOp27
 70
     1
102
RTVSPropertyOp28
 70
     1
102
RTVSPropertyOp29
 70
     1
102
RTVSPropertyOp30
 70
     1
102
RTVSPropertyOp31
 70
     1
102
RTVSPropertyOp32
 70
     1
102
RTVSPropertyOp33
 70
     1
102
RTVSPropertyOp34
 70
     1
102
RTVSPropertyOp35
 70
     1
102
RTVSPropertyOp36
 70
     1
102
RTVSPropertyOp37
 70
     1
102
RTVSPropertyOp38
 70
     1
102
RTVSPropertyOp39
 70
     1
102
RTVSPropertyOp40
 70
     1
102
RTVSPropertyOp41
 70
     1
102
RTVSPropertyOp42
 70
     1
102
RTVSPropertyOp43
 70
     1
102
RTVSPropertyOp44
 70
     1
102
RTVSPropertyOp45
 70
     1
102
RTVSPropertyOp46
 70
     1
102
RTVSPropertyOp47
 70
     1
102
RTVSPropertyOp48
 70
     1
102
RTVSPropertyOp49
 70
     1
102
RTVSPropertyOp50
 70
     1
102
RTVSPropertyOp51
 70
     0
102
RTVSPropertyOp52
 70
     0
102
RTVSPropertyOp53
 70
     1
102
RTVSPropertyOp54
 70
     1
102
RTVSPropertyOp55
 70
     1
102
RTVSPropertyOp56
 70
     1
102
RTVSPropertyOp57
 70
     1
102
RTVSPropertyOp58
 70
     1
102
RTVSPropertyOp59
 70
     1
102
RTVSPropertyOp60
 70
     1
102
RTVSPropertyOp61
 70
     1
102
RTVSPropertyOp62
 70
     1
  0
XRECORD
  5
1198
102
{ACAD_REACTORS
330
1197
102
}
330
1197
100
AcDbXrecord
280
     1
102
RTVSPost2010Prop28
280
     0
102
RTVSPost2010PropOp28
 70
     1
102
RTVSPost2010Prop29
280
     1
102
RTVSPost2010PropOp29
 70
     1
102
RTVSPost2010Prop30
280
     1
102
RTVSPost2010PropOp30
 70
     1
102
RTVSPost2010Prop31
280
     0
102
RTVSPost2010PropOp31
 70
     1
102
RTVSPost2010Prop32
280
     0
102
RTVSPost2010PropOp32
 70
     1
102
RTVSPost2010Prop33
280
     0
102
RTVSPost2010PropOp33
 70
     1
102
RTVSPost2010Prop34
280
     0
102
RTVSPost2010PropOp34
 70
     1
102
RTVSPost2010Prop35
280
     0
102
RTVSPost2010PropOp35
 70
     1
102
RTVSPost2010Prop36
280
     0
102
RTVSPost2010PropOp36
 70
     1
102
RTVSPost2010Prop37
 90
       50
102
RTVSPost2010PropOp37
 70
     1
102
RTVSPost2010Prop38
140
0.0
102
RTVSPost2010PropOp38
 70
     1
102
RTVSPost2010Prop39
140
1.0
102
RTVSPost2010PropOp39
 70
     1
102
RTVSPost2010Prop40
 90
        0
102
RTVSPost2010PropOp40
 70
     1
102
RTVSPost2010Prop41ColorIndex
 90
       18
102
RTVSPost2010Prop41ColorRGB
 90
        0
102
RTVSPost2010PropOp41
 70
     1
102
RTVSPost2010Prop42
 90
       50
102
RTVSPost2010PropOp42
 70
     1
102
RTVSPost2010Prop43
 90
        3
102
RTVSPost2010PropOp43
 70
     1
102
RTVSPost2010Prop44ColorIndex
 90
        5
102
RTVSPost2010Prop44ColorRGB
 90
      255
102
RTVSPost2010PropOp44
 70
     1
102
RTVSPost2010Prop45
280
     0
102
RTVSPost2010PropOp45
 70
     1
102
RTVSPost2010Prop46
 90
       50
102
RTVSPost2010PropOp46
 70
     1
102
RTVSPost2010Prop47
 90
       50
102
RTVSPost2010PropOp47
 70
     1
102
RTVSPost2010Prop48
 90
       50
102
RTVSPost2010PropOp48
 70
     1
102
RTVSPost2010Prop49
280
     0
102
RTVSPost2010PropOp49
 70
     1
102
RTVSPost2010Prop50
 90
       50
102
RTVSPost2010PropOp50
 70
     1
102
RTVSPost2010Prop51ColorIndex
 90
      256
102
RTVSPost2010Prop51ColorRGB
 90
-16777216
102
RTVSPost2010PropOp51
 70
     0
102
RTVSPost2010Prop52
140
1.0
102
RTVSPost2010PropOp52
 70
     0
102
RTVSPost2010Prop53
 90
        2
102
RTVSPost2010PropOp53
 70
     1
102
RTVSPost2010Prop54
  1
strokes_ogs.tif
102
RTVSPost2010PropOp54
 70
     1
102
RTVSPost2010Prop55
280
     0
102
RTVSPost2010PropOp55
 70
     1
102
RTVSPost2010Prop56
140
1.0
102
RTVSPost2010PropOp56
 70
     1
102
RTVSPost2010Prop57
140
1.0
102
RTVSPost2010PropOp57
 70
     1
102
RTVSPropertyOp0
 70
     1
102
RTVSPropertyOp1
 70
     1
102
RTVSPropertyOp2
 70
     1
102
RTVSPropertyOp3
 70
     1
102
RTVSPropertyOp4
 70
     1
102
RTVSPropertyOp5
 70
     1
102
RTVSPropertyOp6
 70
     1
102
RTVSPropertyOp7
 70
     1
102
RTVSPropertyOp8
 70
     1
102
RTVSPropertyOp9
 70
     1
102
RTVSPropertyOp10
 70
     1
102
RTVSPropertyOp11
 70
     1
102
RTVSPropertyOp12
 70
     1
102
RTVSPropertyOp13
 70
     1
102
RTVSPropertyOp14
 70
     1
102
RTVSPropertyOp15
 70
     1
102
RTVSPropertyOp16
 70
     1
102
RTVSPropertyOp17
 70
     1
102
RTVSPropertyOp18
 70
     1
102
RTVSPropertyOp19
 70
     1
102
RTVSPropertyOp20
 70
     1
102
RTVSPropertyOp21
 70
     1
102
RTVSPropertyOp22
 70
     1
102
RTVSPropertyOp23
 70
     1
102
RTVSPropertyOp24
 70
     1
102
RTVSPropertyOp25
 70
     1
102
RTVSPropertyOp26
 70
     1
102
RTVSPropertyOp27
 70
     1
102
RTVSPropertyOp28
 70
     1
102
RTVSPropertyOp29
 70
     1
102
RTVSPropertyOp30
 70
     1
102
RTVSPropertyOp31
 70
     1
102
RTVSPropertyOp32
 70
     1
102
RTVSPropertyOp33
 70
     1
102
RTVSPropertyOp34
 70
     1
102
RTVSPropertyOp35
 70
     1
102
RTVSPropertyOp36
 70
     1
102
RTVSPropertyOp37
 70
     1
102
RTVSPropertyOp38
 70
     1
102
RTVSPropertyOp39
 70
     1
102
RTVSPropertyOp40
 70
     1
102
RTVSPropertyOp41
 70
     1
102
RTVSPropertyOp42
 70
     1
102
RTVSPropertyOp43
 70
     1
102
RTVSPropertyOp44
 70
     1
102
RTVSPropertyOp45
 70
     1
102
RTVSPropertyOp46
 70
     1
102
RTVSPropertyOp47
 70
     1
102
RTVSPropertyOp48
 70
     1
102
RTVSPropertyOp49
 70
     1
102
RTVSPropertyOp50
 70
     1
102
RTVSPropertyOp51
 70
     0
102
RTVSPropertyOp52
 70
     0
102
RTVSPropertyOp53
 70
     1
102
RTVSPropertyOp54
 70
     1
102
RTVSPropertyOp55
 70
     1
102
RTVSPropertyOp56
 70
     1
102
RTVSPropertyOp57
 70
     1
102
RTVSPropertyOp58
 70
     1
102
RTVSPropertyOp59
 70
     1
102
RTVSPropertyOp60
 70
     1
102
RTVSPropertyOp61
 70
     1
102
RTVSPropertyOp62
 70
     1
  0
XRECORD
  5
11AA
102
{ACAD_REACTORS
330
11A9
102
}
330
11A9
100
AcDbXrecord
280
     1
102
RTVSPost2010Prop28
280
     0
102
RTVSPost2010PropOp28
 70
     1
102
RTVSPost2010Prop29
280
     1
102
RTVSPost2010PropOp29
 70
     1
102
RTVSPost2010Prop30
280
     1
102
RTVSPost2010PropOp30
 70
     1
102
RTVSPost2010Prop31
280
     0
102
RTVSPost2010PropOp31
 70
     1
102
RTVSPost2010Prop32
280
     0
102
RTVSPost2010PropOp32
 70
     1
102
RTVSPost2010Prop33
280
     0
102
RTVSPost2010PropOp33
 70
     1
102
RTVSPost2010Prop34
280
     0
102
RTVSPost2010PropOp34
 70
     1
102
RTVSPost2010Prop35
280
     0
102
RTVSPost2010PropOp35
 70
     1
102
RTVSPost2010Prop36
280
     0
102
RTVSPost2010PropOp36
 70
     1
102
RTVSPost2010Prop37
 90
       50
102
RTVSPost2010PropOp37
 70
     1
102
RTVSPost2010Prop38
140
0.0
102
RTVSPost2010PropOp38
 70
     1
102
RTVSPost2010Prop39
140
1.0
102
RTVSPost2010PropOp39
 70
     1
102
RTVSPost2010Prop40
 90
        0
102
RTVSPost2010PropOp40
 70
     1
102
RTVSPost2010Prop41ColorIndex
 90
       18
102
RTVSPost2010Prop41ColorRGB
 90
        0
102
RTVSPost2010PropOp41
 70
     1
102
RTVSPost2010Prop42
 90
       50
102
RTVSPost2010PropOp42
 70
     1
102
RTVSPost2010Prop43
 90
        3
102
RTVSPost2010PropOp43
 70
     1
102
RTVSPost2010Prop44ColorIndex
 90
        5
102
RTVSPost2010Prop44ColorRGB
 90
      255
102
RTVSPost2010PropOp44
 70
     1
102
RTVSPost2010Prop45
280
     0
102
RTVSPost2010PropOp45
 70
     1
102
RTVSPost2010Prop46
 90
       50
102
RTVSPost2010PropOp46
 70
     1
102
RTVSPost2010Prop47
 90
       50
102
RTVSPost2010PropOp47
 70
     1
102
RTVSPost2010Prop48
 90
       50
102
RTVSPost2010PropOp48
 70
     1
102
RTVSPost2010Prop49
280
     0
102
RTVSPost2010PropOp49
 70
     1
102
RTVSPost2010Prop50
 90
       50
102
RTVSPost2010PropOp50
 70
     1
102
RTVSPost2010Prop51ColorIndex
 90
      256
102
RTVSPost2010Prop51ColorRGB
 90
-16777216
102
RTVSPost2010PropOp51
 70
     0
102
RTVSPost2010Prop52
140
1.0
102
RTVSPost2010PropOp52
 70
     0
102
RTVSPost2010Prop53
 90
        2
102
RTVSPost2010PropOp53
 70
     1
102
RTVSPost2010Prop54
  1
strokes_ogs.tif
102
RTVSPost2010PropOp54
 70
     1
102
RTVSPost2010Prop55
280
     0
102
RTVSPost2010PropOp55
 70
     1
102
RTVSPost2010Prop56
140
1.0
102
RTVSPost2010PropOp56
 70
     1
102
RTVSPost2010Prop57
140
1.0
102
RTVSPost2010PropOp57
 70
     1
102
RTVSPropertyOp0
 70
     0
102
RTVSPropertyOp1
 70
     0
102
RTVSPropertyOp2
 70
     0
102
RTVSPropertyOp3
 70
     0
102
RTVSPropertyOp4
 70
     0
102
RTVSPropertyOp5
 70
     0
102
RTVSPropertyOp6
 70
     0
102
RTVSPropertyOp7
 70
     0
102
RTVSPropertyOp8
 70
     0
102
RTVSPropertyOp9
 70
     0
102
RTVSPropertyOp10
 70
     0
102
RTVSPropertyOp11
 70
     0
102
RTVSPropertyOp12
 70
     0
102
RTVSPropertyOp13
 70
     0
102
RTVSPropertyOp14
 70
     2
102
RTVSPropertyOp15
 70
     0
102
RTVSPropertyOp16
 70
     0
102
RTVSPropertyOp17
 70
     0
102
RTVSPropertyOp18
 70
     0
102
RTVSPropertyOp19
 70
     0
102
RTVSPropertyOp20
 70
     0
102
RTVSPropertyOp21
 70
     0
102
RTVSPropertyOp22
 70
     0
102
RTVSPropertyOp23
 70
     0
102
RTVSPropertyOp24
 70
     0
102
RTVSPropertyOp25
 70
     0
102
RTVSPropertyOp26
 70
     0
102
RTVSPropertyOp27
 70
     0
102
RTVSPropertyOp28
 70
     1
102
RTVSPropertyOp29
 70
     1
102
RTVSPropertyOp30
 70
     1
102
RTVSPropertyOp31
 70
     1
102
RTVSPropertyOp32
 70
     1
102
RTVSPropertyOp33
 70
     1
102
RTVSPropertyOp34
 70
     1
102
RTVSPropertyOp35
 70
     1
102
RTVSPropertyOp36
 70
     1
102
RTVSPropertyOp37
 70
     1
102
RTVSPropertyOp38
 70
     1
102
RTVSPropertyOp39
 70
     1
102
RTVSPropertyOp40
 70
     1
102
RTVSPropertyOp41
 70
     1
102
RTVSPropertyOp42
 70
     1
102
RTVSPropertyOp43
 70
     1
102
RTVSPropertyOp44
 70
     1
102
RTVSPropertyOp45
 70
     1
102
RTVSPropertyOp46
 70
     1
102
RTVSPropertyOp47
 70
     1
102
RTVSPropertyOp48
 70
     1
102
RTVSPropertyOp49
 70
     1
102
RTVSPropertyOp50
 70
     1
102
RTVSPropertyOp51
 70
     0
102
RTVSPropertyOp52
 70
     0
102
RTVSPropertyOp53
 70
     1
102
RTVSPropertyOp54
 70
     1
102
RTVSPropertyOp55
 70
     1
102
RTVSPropertyOp56
 70
     1
102
RTVSPropertyOp57
 70
     1
102
RTVSPropertyOp58
 70
     1
102
RTVSPropertyOp59
 70
     1
102
RTVSPropertyOp60
 70
     1
102
RTVSPropertyOp61
 70
     1
102
RTVSPropertyOp62
 70
     1
  0
XRECORD
  5
11A0
102
{ACAD_REACTORS
330
119F
102
}
330
119F
100
AcDbXrecord
280
     1
102
RTVSPost2010Prop28
280
     0
102
RTVSPost2010PropOp28
 70
     1
102
RTVSPost2010Prop29
280
     1
102
RTVSPost2010PropOp29
 70
     1
102
RTVSPost2010Prop30
280
     1
102
RTVSPost2010PropOp30
 70
     1
102
RTVSPost2010Prop31
280
     0
102
RTVSPost2010PropOp31
 70
     1
102
RTVSPost2010Prop32
280
     0
102
RTVSPost2010PropOp32
 70
     1
102
RTVSPost2010Prop33
280
     0
102
RTVSPost2010PropOp33
 70
     1
102
RTVSPost2010Prop34
280
     0
102
RTVSPost2010PropOp34
 70
     1
102
RTVSPost2010Prop35
280
     0
102
RTVSPost2010PropOp35
 70
     1
102
RTVSPost2010Prop36
280
     0
102
RTVSPost2010PropOp36
 70
     1
102
RTVSPost2010Prop37
 90
       50
102
RTVSPost2010PropOp37
 70
     1
102
RTVSPost2010Prop38
140
0.0
102
RTVSPost2010PropOp38
 70
     1
102
RTVSPost2010Prop39
140
1.0
102
RTVSPost2010PropOp39
 70
     1
102
RTVSPost2010Prop40
 90
        0
102
RTVSPost2010PropOp40
 70
     1
102
RTVSPost2010Prop41ColorIndex
 90
       18
102
RTVSPost2010Prop41ColorRGB
 90
        0
102
RTVSPost2010PropOp41
 70
     1
102
RTVSPost2010Prop42
 90
       50
102
RTVSPost2010PropOp42
 70
     1
102
RTVSPost2010Prop43
 90
        3
102
RTVSPost2010PropOp43
 70
     1
102
RTVSPost2010Prop44ColorIndex
 90
        5
102
RTVSPost2010Prop44ColorRGB
 90
      255
102
RTVSPost2010PropOp44
 70
     1
102
RTVSPost2010Prop45
280
     0
102
RTVSPost2010PropOp45
 70
     1
102
RTVSPost2010Prop46
 90
       50
102
RTVSPost2010PropOp46
 70
     1
102
RTVSPost2010Prop47
 90
       50
102
RTVSPost2010PropOp47
 70
     1
102
RTVSPost2010Prop48
 90
       50
102
RTVSPost2010PropOp48
 70
     1
102
RTVSPost2010Prop49
280
     0
102
RTVSPost2010PropOp49
 70
     1
102
RTVSPost2010Prop50
 90
       50
102
RTVSPost2010PropOp50
 70
     1
102
RTVSPost2010Prop51ColorIndex
 90
      256
102
RTVSPost2010Prop51ColorRGB
 90
-16777216
102
RTVSPost2010PropOp51
 70
     0
102
RTVSPost2010Prop52
140
1.0
102
RTVSPost2010PropOp52
 70
     0
102
RTVSPost2010Prop53
 90
        2
102
RTVSPost2010PropOp53
 70
     1
102
RTVSPost2010Prop54
  1
strokes_ogs.tif
102
RTVSPost2010PropOp54
 70
     1
102
RTVSPost2010Prop55
280
     0
102
RTVSPost2010PropOp55
 70
     1
102
RTVSPost2010Prop56
140
1.0
102
RTVSPost2010PropOp56
 70
     1
102
RTVSPost2010Prop57
140
1.0
102
RTVSPost2010PropOp57
 70
     1
102
RTVSPropertyOp0
 70
     1
102
RTVSPropertyOp1
 70
     1
102
RTVSPropertyOp2
 70
     1
102
RTVSPropertyOp3
 70
     1
102
RTVSPropertyOp4
 70
     1
102
RTVSPropertyOp5
 70
     1
102
RTVSPropertyOp6
 70
     1
102
RTVSPropertyOp7
 70
     1
102
RTVSPropertyOp8
 70
     1
102
RTVSPropertyOp9
 70
     1
102
RTVSPropertyOp10
 70
     1
102
RTVSPropertyOp11
 70
     1
102
RTVSPropertyOp12
 70
     1
102
RTVSPropertyOp13
 70
     1
102
RTVSPropertyOp14
 70
     1
102
RTVSPropertyOp15
 70
     1
102
RTVSPropertyOp16
 70
     1
102
RTVSPropertyOp17
 70
     1
102
RTVSPropertyOp18
 70
     1
102
RTVSPropertyOp19
 70
     1
102
RTVSPropertyOp20
 70
     1
102
RTVSPropertyOp21
 70
     1
102
RTVSPropertyOp22
 70
     1
102
RTVSPropertyOp23
 70
     1
102
RTVSPropertyOp24
 70
     1
102
RTVSPropertyOp25
 70
     1
102
RTVSPropertyOp26
 70
     1
102
RTVSPropertyOp27
 70
     1
102
RTVSPropertyOp28
 70
     1
102
RTVSPropertyOp29
 70
     1
102
RTVSPropertyOp30
 70
     1
102
RTVSPropertyOp31
 70
     1
102
RTVSPropertyOp32
 70
     1
102
RTVSPropertyOp33
 70
     1
102
RTVSPropertyOp34
 70
     1
102
RTVSPropertyOp35
 70
     1
102
RTVSPropertyOp36
 70
     1
102
RTVSPropertyOp37
 70
     1
102
RTVSPropertyOp38
 70
     1
102
RTVSPropertyOp39
 70
     1
102
RTVSPropertyOp40
 70
     1
102
RTVSPropertyOp41
 70
     1
102
RTVSPropertyOp42
 70
     1
102
RTVSPropertyOp43
 70
     1
102
RTVSPropertyOp44
 70
     1
102
RTVSPropertyOp45
 70
     1
102
RTVSPropertyOp46
 70
     1
102
RTVSPropertyOp47
 70
     1
102
RTVSPropertyOp48
 70
     1
102
RTVSPropertyOp49
 70
     1
102
RTVSPropertyOp50
 70
     1
102
RTVSPropertyOp51
 70
     0
102
RTVSPropertyOp52
 70
     0
102
RTVSPropertyOp53
 70
     1
102
RTVSPropertyOp54
 70
     1
102
RTVSPropertyOp55
 70
     1
102
RTVSPropertyOp56
 70
     1
102
RTVSPropertyOp57
 70
     1
102
RTVSPropertyOp58
 70
     1
102
RTVSPropertyOp59
 70
     1
102
RTVSPropertyOp60
 70
     1
102
RTVSPropertyOp61
 70
     1
102
RTVSPropertyOp62
 70
     1
  0
XRECORD
  5
1184
102
{ACAD_REACTORS
330
1183
102
}
330
1183
100
AcDbXrecord
280
     1
102
RTVSPost2010Prop28
280
     0
102
RTVSPost2010PropOp28
 70
     1
102
RTVSPost2010Prop29
280
     1
102
RTVSPost2010PropOp29
 70
     1
102
RTVSPost2010Prop30
280
     1
102
RTVSPost2010PropOp30
 70
     1
102
RTVSPost2010Prop31
280
     0
102
RTVSPost2010PropOp31
 70
     1
102
RTVSPost2010Prop32
280
     0
102
RTVSPost2010PropOp32
 70
     1
102
RTVSPost2010Prop33
280
     0
102
RTVSPost2010PropOp33
 70
     1
102
RTVSPost2010Prop34
280
     0
102
RTVSPost2010PropOp34
 70
     1
102
RTVSPost2010Prop35
280
     0
102
RTVSPost2010PropOp35
 70
     1
102
RTVSPost2010Prop36
280
     0
102
RTVSPost2010PropOp36
 70
     1
102
RTVSPost2010Prop37
 90
       50
102
RTVSPost2010PropOp37
 70
     1
102
RTVSPost2010Prop38
140
0.0
102
RTVSPost2010PropOp38
 70
     1
102
RTVSPost2010Prop39
140
1.0
102
RTVSPost2010PropOp39
 70
     1
102
RTVSPost2010Prop40
 90
        0
102
RTVSPost2010PropOp40
 70
     1
102
RTVSPost2010Prop41ColorIndex
 90
       18
102
RTVSPost2010Prop41ColorRGB
 90
        0
102
RTVSPost2010PropOp41
 70
     1
102
RTVSPost2010Prop42
 90
       50
102
RTVSPost2010PropOp42
 70
     1
102
RTVSPost2010Prop43
 90
        3
102
RTVSPost2010PropOp43
 70
     1
102
RTVSPost2010Prop44ColorIndex
 90
        5
102
RTVSPost2010Prop44ColorRGB
 90
      255
102
RTVSPost2010PropOp44
 70
     1
102
RTVSPost2010Prop45
280
     0
102
RTVSPost2010PropOp45
 70
     1
102
RTVSPost2010Prop46
 90
       50
102
RTVSPost2010PropOp46
 70
     1
102
RTVSPost2010Prop47
 90
       50
102
RTVSPost2010PropOp47
 70
     1
102
RTVSPost2010Prop48
 90
       50
102
RTVSPost2010PropOp48
 70
     1
102
RTVSPost2010Prop49
280
     0
102
RTVSPost2010PropOp49
 70
     1
102
RTVSPost2010Prop50
 90
       50
102
RTVSPost2010PropOp50
 70
     1
102
RTVSPost2010Prop51ColorIndex
 90
      256
102
RTVSPost2010Prop51ColorRGB
 90
-16777216
102
RTVSPost2010PropOp51
 70
     0
102
RTVSPost2010Prop52
140
1.0
102
RTVSPost2010PropOp52
 70
     0
102
RTVSPost2010Prop53
 90
        2
102
RTVSPost2010PropOp53
 70
     1
102
RTVSPost2010Prop54
  1
strokes_ogs.tif
102
RTVSPost2010PropOp54
 70
     1
102
RTVSPost2010Prop55
280
     0
102
RTVSPost2010PropOp55
 70
     1
102
RTVSPost2010Prop56
140
1.0
102
RTVSPost2010PropOp56
 70
     1
102
RTVSPost2010Prop57
140
1.0
102
RTVSPost2010PropOp57
 70
     1
102
RTVSPropertyOp0
 70
     1
102
RTVSPropertyOp1
 70
     1
102
RTVSPropertyOp2
 70
     1
102
RTVSPropertyOp3
 70
     1
102
RTVSPropertyOp4
 70
     1
102
RTVSPropertyOp5
 70
     1
102
RTVSPropertyOp6
 70
     1
102
RTVSPropertyOp7
 70
     1
102
RTVSPropertyOp8
 70
     1
102
RTVSPropertyOp9
 70
     1
102
RTVSPropertyOp10
 70
     1
102
RTVSPropertyOp11
 70
     1
102
RTVSPropertyOp12
 70
     1
102
RTVSPropertyOp13
 70
     1
102
RTVSPropertyOp14
 70
     1
102
RTVSPropertyOp15
 70
     1
102
RTVSPropertyOp16
 70
     1
102
RTVSPropertyOp17
 70
     1
102
RTVSPropertyOp18
 70
     1
102
RTVSPropertyOp19
 70
     1
102
RTVSPropertyOp20
 70
     1
102
RTVSPropertyOp21
 70
     1
102
RTVSPropertyOp22
 70
     1
102
RTVSPropertyOp23
 70
     1
102
RTVSPropertyOp24
 70
     1
102
RTVSPropertyOp25
 70
     1
102
RTVSPropertyOp26
 70
     1
102
RTVSPropertyOp27
 70
     1
102
RTVSPropertyOp28
 70
     1
102
RTVSPropertyOp29
 70
     1
102
RTVSPropertyOp30
 70
     1
102
RTVSPropertyOp31
 70
     1
102
RTVSPropertyOp32
 70
     1
102
RTVSPropertyOp33
 70
     1
102
RTVSPropertyOp34
 70
     1
102
RTVSPropertyOp35
 70
     1
102
RTVSPropertyOp36
 70
     1
102
RTVSPropertyOp37
 70
     1
102
RTVSPropertyOp38
 70
     1
102
RTVSPropertyOp39
 70
     1
102
RTVSPropertyOp40
 70
     1
102
RTVSPropertyOp41
 70
     1
102
RTVSPropertyOp42
 70
     1
102
RTVSPropertyOp43
 70
     1
102
RTVSPropertyOp44
 70
     1
102
RTVSPropertyOp45
 70
     1
102
RTVSPropertyOp46
 70
     1
102
RTVSPropertyOp47
 70
     1
102
RTVSPropertyOp48
 70
     1
102
RTVSPropertyOp49
 70
     1
102
RTVSPropertyOp50
 70
     1
102
RTVSPropertyOp51
 70
     0
102
RTVSPropertyOp52
 70
     0
102
RTVSPropertyOp53
 70
     1
102
RTVSPropertyOp54
 70
     1
102
RTVSPropertyOp55
 70
     1
102
RTVSPropertyOp56
 70
     1
102
RTVSPropertyOp57
 70
     1
102
RTVSPropertyOp58
 70
     1
102
RTVSPropertyOp59
 70
     1
102
RTVSPropertyOp60
 70
     1
102
RTVSPropertyOp61
 70
     1
102
RTVSPropertyOp62
 70
     1
  0
XRECORD
  5
1186
102
{ACAD_REACTORS
330
1185
102
}
330
1185
100
AcDbXrecord
280
     1
102
RTVSPost2010Prop28
280
     0
102
RTVSPost2010PropOp28
 70
     1
102
RTVSPost2010Prop29
280
     1
102
RTVSPost2010PropOp29
 70
     1
102
RTVSPost2010Prop30
280
     1
102
RTVSPost2010PropOp30
 70
     1
102
RTVSPost2010Prop31
280
     0
102
RTVSPost2010PropOp31
 70
     1
102
RTVSPost2010Prop32
280
     0
102
RTVSPost2010PropOp32
 70
     1
102
RTVSPost2010Prop33
280
     0
102
RTVSPost2010PropOp33
 70
     1
102
RTVSPost2010Prop34
280
     0
102
RTVSPost2010PropOp34
 70
     1
102
RTVSPost2010Prop35
280
     0
102
RTVSPost2010PropOp35
 70
     1
102
RTVSPost2010Prop36
280
     0
102
RTVSPost2010PropOp36
 70
     1
102
RTVSPost2010Prop37
 90
       50
102
RTVSPost2010PropOp37
 70
     1
102
RTVSPost2010Prop38
140
0.0
102
RTVSPost2010PropOp38
 70
     1
102
RTVSPost2010Prop39
140
1.0
102
RTVSPost2010PropOp39
 70
     1
102
RTVSPost2010Prop40
 90
        0
102
RTVSPost2010PropOp40
 70
     1
102
RTVSPost2010Prop41ColorIndex
 90
       18
102
RTVSPost2010Prop41ColorRGB
 90
        0
102
RTVSPost2010PropOp41
 70
     1
102
RTVSPost2010Prop42
 90
       50
102
RTVSPost2010PropOp42
 70
     1
102
RTVSPost2010Prop43
 90
        3
102
RTVSPost2010PropOp43
 70
     1
102
RTVSPost2010Prop44ColorIndex
 90
        5
102
RTVSPost2010Prop44ColorRGB
 90
      255
102
RTVSPost2010PropOp44
 70
     1
102
RTVSPost2010Prop45
280
     0
102
RTVSPost2010PropOp45
 70
     1
102
RTVSPost2010Prop46
 90
       50
102
RTVSPost2010PropOp46
 70
     1
102
RTVSPost2010Prop47
 90
       50
102
RTVSPost2010PropOp47
 70
     1
102
RTVSPost2010Prop48
 90
       50
102
RTVSPost2010PropOp48
 70
     1
102
RTVSPost2010Prop49
280
     0
102
RTVSPost2010PropOp49
 70
     1
102
RTVSPost2010Prop50
 90
       50
102
RTVSPost2010PropOp50
 70
     1
102
RTVSPost2010Prop51ColorIndex
 90
      256
102
RTVSPost2010Prop51ColorRGB
 90
-16777216
102
RTVSPost2010PropOp51
 70
     0
102
RTVSPost2010Prop52
140
1.0
102
RTVSPost2010PropOp52
 70
     0
102
RTVSPost2010Prop53
 90
        2
102
RTVSPost2010PropOp53
 70
     1
102
RTVSPost2010Prop54
  1
strokes_ogs.tif
102
RTVSPost2010PropOp54
 70
     1
102
RTVSPost2010Prop55
280
     0
102
RTVSPost2010PropOp55
 70
     1
102
RTVSPost2010Prop56
140
1.0
102
RTVSPost2010PropOp56
 70
     1
102
RTVSPost2010Prop57
140
1.0
102
RTVSPost2010PropOp57
 70
     1
102
RTVSPropertyOp0
 70
     1
102
RTVSPropertyOp1
 70
     1
102
RTVSPropertyOp2
 70
     1
102
RTVSPropertyOp3
 70
     1
102
RTVSPropertyOp4
 70
     1
102
RTVSPropertyOp5
 70
     1
102
RTVSPropertyOp6
 70
     1
102
RTVSPropertyOp7
 70
     1
102
RTVSPropertyOp8
 70
     1
102
RTVSPropertyOp9
 70
     1
102
RTVSPropertyOp10
 70
     1
102
RTVSPropertyOp11
 70
     1
102
RTVSPropertyOp12
 70
     1
102
RTVSPropertyOp13
 70
     1
102
RTVSPropertyOp14
 70
     1
102
RTVSPropertyOp15
 70
     1
102
RTVSPropertyOp16
 70
     1
102
RTVSPropertyOp17
 70
     1
102
RTVSPropertyOp18
 70
     1
102
RTVSPropertyOp19
 70
     1
102
RTVSPropertyOp20
 70
     1
102
RTVSPropertyOp21
 70
     1
102
RTVSPropertyOp22
 70
     1
102
RTVSPropertyOp23
 70
     1
102
RTVSPropertyOp24
 70
     1
102
RTVSPropertyOp25
 70
     1
102
RTVSPropertyOp26
 70
     1
102
RTVSPropertyOp27
 70
     1
102
RTVSPropertyOp28
 70
     1
102
RTVSPropertyOp29
 70
     1
102
RTVSPropertyOp30
 70
     1
102
RTVSPropertyOp31
 70
     1
102
RTVSPropertyOp32
 70
     1
102
RTVSPropertyOp33
 70
     1
102
RTVSPropertyOp34
 70
     1
102
RTVSPropertyOp35
 70
     1
102
RTVSPropertyOp36
 70
     1
102
RTVSPropertyOp37
 70
     1
102
RTVSPropertyOp38
 70
     1
102
RTVSPropertyOp39
 70
     1
102
RTVSPropertyOp40
 70
     1
102
RTVSPropertyOp41
 70
     1
102
RTVSPropertyOp42
 70
     1
102
RTVSPropertyOp43
 70
     1
102
RTVSPropertyOp44
 70
     1
102
RTVSPropertyOp45
 70
     1
102
RTVSPropertyOp46
 70
     1
102
RTVSPropertyOp47
 70
     1
102
RTVSPropertyOp48
 70
     1
102
RTVSPropertyOp49
 70
     1
102
RTVSPropertyOp50
 70
     1
102
RTVSPropertyOp51
 70
     0
102
RTVSPropertyOp52
 70
     0
102
RTVSPropertyOp53
 70
     1
102
RTVSPropertyOp54
 70
     1
102
RTVSPropertyOp55
 70
     1
102
RTVSPropertyOp56
 70
     1
102
RTVSPropertyOp57
 70
     1
102
RTVSPropertyOp58
 70
     1
102
RTVSPropertyOp59
 70
     1
102
RTVSPropertyOp60
 70
     1
102
RTVSPropertyOp61
 70
     1
102
RTVSPropertyOp62
 70
     1
  0
XRECORD
  5
1188
102
{ACAD_REACTORS
330
1187
102
}
330
1187
100
AcDbXrecord
280
     1
102
RTVSPost2010Prop28
280
     0
102
RTVSPost2010PropOp28
 70
     1
102
RTVSPost2010Prop29
280
     1
102
RTVSPost2010PropOp29
 70
     1
102
RTVSPost2010Prop30
280
     1
102
RTVSPost2010PropOp30
 70
     1
102
RTVSPost2010Prop31
280
     0
102
RTVSPost2010PropOp31
 70
     1
102
RTVSPost2010Prop32
280
     0
102
RTVSPost2010PropOp32
 70
     1
102
RTVSPost2010Prop33
280
     0
102
RTVSPost2010PropOp33
 70
     1
102
RTVSPost2010Prop34
280
     0
102
RTVSPost2010PropOp34
 70
     1
102
RTVSPost2010Prop35
280
     0
102
RTVSPost2010PropOp35
 70
     1
102
RTVSPost2010Prop36
280
     0
102
RTVSPost2010PropOp36
 70
     1
102
RTVSPost2010Prop37
 90
       50
102
RTVSPost2010PropOp37
 70
     1
102
RTVSPost2010Prop38
140
0.0
102
RTVSPost2010PropOp38
 70
     1
102
RTVSPost2010Prop39
140
1.0
102
RTVSPost2010PropOp39
 70
     1
102
RTVSPost2010Prop40
 90
        0
102
RTVSPost2010PropOp40
 70
     1
102
RTVSPost2010Prop41ColorIndex
 90
       18
102
RTVSPost2010Prop41ColorRGB
 90
        0
102
RTVSPost2010PropOp41
 70
     1
102
RTVSPost2010Prop42
 90
       50
102
RTVSPost2010PropOp42
 70
     1
102
RTVSPost2010Prop43
 90
        3
102
RTVSPost2010PropOp43
 70
     1
102
RTVSPost2010Prop44ColorIndex
 90
        5
102
RTVSPost2010Prop44ColorRGB
 90
      255
102
RTVSPost2010PropOp44
 70
     1
102
RTVSPost2010Prop45
280
     0
102
RTVSPost2010PropOp45
 70
     1
102
RTVSPost2010Prop46
 90
       50
102
RTVSPost2010PropOp46
 70
     1
102
RTVSPost2010Prop47
 90
       50
102
RTVSPost2010PropOp47
 70
     1
102
RTVSPost2010Prop48
 90
       50
102
RTVSPost2010PropOp48
 70
     1
102
RTVSPost2010Prop49
280
     0
102
RTVSPost2010PropOp49
 70
     1
102
RTVSPost2010Prop50
 90
       50
102
RTVSPost2010PropOp50
 70
     1
102
RTVSPost2010Prop51ColorIndex
 90
      256
102
RTVSPost2010Prop51ColorRGB
 90
-16777216
102
RTVSPost2010PropOp51
 70
     0
102
RTVSPost2010Prop52
140
1.0
102
RTVSPost2010PropOp52
 70
     0
102
RTVSPost2010Prop53
 90
        2
102
RTVSPost2010PropOp53
 70
     1
102
RTVSPost2010Prop54
  1
strokes_ogs.tif
102
RTVSPost2010PropOp54
 70
     1
102
RTVSPost2010Prop55
280
     0
102
RTVSPost2010PropOp55
 70
     1
102
RTVSPost2010Prop56
140
1.0
102
RTVSPost2010PropOp56
 70
     1
102
RTVSPost2010Prop57
140
1.0
102
RTVSPost2010PropOp57
 70
     1
102
RTVSPropertyOp0
 70
     1
102
RTVSPropertyOp1
 70
     1
102
RTVSPropertyOp2
 70
     1
102
RTVSPropertyOp3
 70
     1
102
RTVSPropertyOp4
 70
     1
102
RTVSPropertyOp5
 70
     1
102
RTVSPropertyOp6
 70
     1
102
RTVSPropertyOp7
 70
     1
102
RTVSPropertyOp8
 70
     1
102
RTVSPropertyOp9
 70
     1
102
RTVSPropertyOp10
 70
     1
102
RTVSPropertyOp11
 70
     1
102
RTVSPropertyOp12
 70
     1
102
RTVSPropertyOp13
 70
     1
102
RTVSPropertyOp14
 70
     1
102
RTVSPropertyOp15
 70
     1
102
RTVSPropertyOp16
 70
     1
102
RTVSPropertyOp17
 70
     1
102
RTVSPropertyOp18
 70
     1
102
RTVSPropertyOp19
 70
     1
102
RTVSPropertyOp20
 70
     1
102
RTVSPropertyOp21
 70
     1
102
RTVSPropertyOp22
 70
     1
102
RTVSPropertyOp23
 70
     1
102
RTVSPropertyOp24
 70
     1
102
RTVSPropertyOp25
 70
     1
102
RTVSPropertyOp26
 70
     1
102
RTVSPropertyOp27
 70
     1
102
RTVSPropertyOp28
 70
     1
102
RTVSPropertyOp29
 70
     1
102
RTVSPropertyOp30
 70
     1
102
RTVSPropertyOp31
 70
     1
102
RTVSPropertyOp32
 70
     1
102
RTVSPropertyOp33
 70
     1
102
RTVSPropertyOp34
 70
     1
102
RTVSPropertyOp35
 70
     1
102
RTVSPropertyOp36
 70
     1
102
RTVSPropertyOp37
 70
     1
102
RTVSPropertyOp38
 70
     1
102
RTVSPropertyOp39
 70
     1
102
RTVSPropertyOp40
 70
     1
102
RTVSPropertyOp41
 70
     1
102
RTVSPropertyOp42
 70
     1
102
RTVSPropertyOp43
 70
     1
102
RTVSPropertyOp44
 70
     1
102
RTVSPropertyOp45
 70
     1
102
RTVSPropertyOp46
 70
     1
102
RTVSPropertyOp47
 70
     1
102
RTVSPropertyOp48
 70
     1
102
RTVSPropertyOp49
 70
     1
102
RTVSPropertyOp50
 70
     1
102
RTVSPropertyOp51
 70
     0
102
RTVSPropertyOp52
 70
     0
102
RTVSPropertyOp53
 70
     1
102
RTVSPropertyOp54
 70
     1
102
RTVSPropertyOp55
 70
     1
102
RTVSPropertyOp56
 70
     1
102
RTVSPropertyOp57
 70
     1
102
RTVSPropertyOp58
 70
     1
102
RTVSPropertyOp59
 70
     1
102
RTVSPropertyOp60
 70
     1
102
RTVSPropertyOp61
 70
     1
102
RTVSPropertyOp62
 70
     1
  0
XRECORD
  5
118A
102
{ACAD_REACTORS
330
1189
102
}
330
1189
100
AcDbXrecord
280
     1
102
RTVSPost2010Prop28
280
     0
102
RTVSPost2010PropOp28
 70
     1
102
RTVSPost2010Prop29
280
     1
102
RTVSPost2010PropOp29
 70
     1
102
RTVSPost2010Prop30
280
     1
102
RTVSPost2010PropOp30
 70
     1
102
RTVSPost2010Prop31
280
     0
102
RTVSPost2010PropOp31
 70
     1
102
RTVSPost2010Prop32
280
     0
102
RTVSPost2010PropOp32
 70
     1
102
RTVSPost2010Prop33
280
     0
102
RTVSPost2010PropOp33
 70
     1
102
RTVSPost2010Prop34
280
     0
102
RTVSPost2010PropOp34
 70
     1
102
RTVSPost2010Prop35
280
     0
102
RTVSPost2010PropOp35
 70
     1
102
RTVSPost2010Prop36
280
     0
102
RTVSPost2010PropOp36
 70
     1
102
RTVSPost2010Prop37
 90
       50
102
RTVSPost2010PropOp37
 70
     1
102
RTVSPost2010Prop38
140
0.0
102
RTVSPost2010PropOp38
 70
     1
102
RTVSPost2010Prop39
140
1.0
102
RTVSPost2010PropOp39
 70
     1
102
RTVSPost2010Prop40
 90
        0
102
RTVSPost2010PropOp40
 70
     1
102
RTVSPost2010Prop41ColorIndex
 90
       18
102
RTVSPost2010Prop41ColorRGB
 90
        0
102
RTVSPost2010PropOp41
 70
     1
102
RTVSPost2010Prop42
 90
       50
102
RTVSPost2010PropOp42
 70
     1
102
RTVSPost2010Prop43
 90
        3
102
RTVSPost2010PropOp43
 70
     1
102
RTVSPost2010Prop44ColorIndex
 90
        5
102
RTVSPost2010Prop44ColorRGB
 90
      255
102
RTVSPost2010PropOp44
 70
     1
102
RTVSPost2010Prop45
280
     0
102
RTVSPost2010PropOp45
 70
     1
102
RTVSPost2010Prop46
 90
       50
102
RTVSPost2010PropOp46
 70
     1
102
RTVSPost2010Prop47
 90
       50
102
RTVSPost2010PropOp47
 70
     1
102
RTVSPost2010Prop48
 90
       50
102
RTVSPost2010PropOp48
 70
     1
102
RTVSPost2010Prop49
280
     0
102
RTVSPost2010PropOp49
 70
     1
102
RTVSPost2010Prop50
 90
       50
102
RTVSPost2010PropOp50
 70
     1
102
RTVSPost2010Prop51ColorIndex
 90
      256
102
RTVSPost2010Prop51ColorRGB
 90
-16777216
102
RTVSPost2010PropOp51
 70
     0
102
RTVSPost2010Prop52
140
1.0
102
RTVSPost2010PropOp52
 70
     0
102
RTVSPost2010Prop53
 90
        2
102
RTVSPost2010PropOp53
 70
     1
102
RTVSPost2010Prop54
  1
strokes_ogs.tif
102
RTVSPost2010PropOp54
 70
     1
102
RTVSPost2010Prop55
280
     0
102
RTVSPost2010PropOp55
 70
     1
102
RTVSPost2010Prop56
140
1.0
102
RTVSPost2010PropOp56
 70
     1
102
RTVSPost2010Prop57
140
1.0
102
RTVSPost2010PropOp57
 70
     1
102
RTVSPropertyOp0
 70
     1
102
RTVSPropertyOp1
 70
     1
102
RTVSPropertyOp2
 70
     1
102
RTVSPropertyOp3
 70
     1
102
RTVSPropertyOp4
 70
     1
102
RTVSPropertyOp5
 70
     1
102
RTVSPropertyOp6
 70
     1
102
RTVSPropertyOp7
 70
     1
102
RTVSPropertyOp8
 70
     1
102
RTVSPropertyOp9
 70
     1
102
RTVSPropertyOp10
 70
     1
102
RTVSPropertyOp11
 70
     1
102
RTVSPropertyOp12
 70
     1
102
RTVSPropertyOp13
 70
     1
102
RTVSPropertyOp14
 70
     1
102
RTVSPropertyOp15
 70
     1
102
RTVSPropertyOp16
 70
     1
102
RTVSPropertyOp17
 70
     1
102
RTVSPropertyOp18
 70
     1
102
RTVSPropertyOp19
 70
     1
102
RTVSPropertyOp20
 70
     1
102
RTVSPropertyOp21
 70
     1
102
RTVSPropertyOp22
 70
     1
102
RTVSPropertyOp23
 70
     1
102
RTVSPropertyOp24
 70
     1
102
RTVSPropertyOp25
 70
     1
102
RTVSPropertyOp26
 70
     1
102
RTVSPropertyOp27
 70
     1
102
RTVSPropertyOp28
 70
     1
102
RTVSPropertyOp29
 70
     1
102
RTVSPropertyOp30
 70
     1
102
RTVSPropertyOp31
 70
     1
102
RTVSPropertyOp32
 70
     1
102
RTVSPropertyOp33
 70
     1
102
RTVSPropertyOp34
 70
     1
102
RTVSPropertyOp35
 70
     1
102
RTVSPropertyOp36
 70
     1
102
RTVSPropertyOp37
 70
     1
102
RTVSPropertyOp38
 70
     1
102
RTVSPropertyOp39
 70
     1
102
RTVSPropertyOp40
 70
     1
102
RTVSPropertyOp41
 70
     1
102
RTVSPropertyOp42
 70
     1
102
RTVSPropertyOp43
 70
     1
102
RTVSPropertyOp44
 70
     1
102
RTVSPropertyOp45
 70
     1
102
RTVSPropertyOp46
 70
     1
102
RTVSPropertyOp47
 70
     1
102
RTVSPropertyOp48
 70
     1
102
RTVSPropertyOp49
 70
     1
102
RTVSPropertyOp50
 70
     1
102
RTVSPropertyOp51
 70
     0
102
RTVSPropertyOp52
 70
     0
102
RTVSPropertyOp53
 70
     1
102
RTVSPropertyOp54
 70
     1
102
RTVSPropertyOp55
 70
     1
102
RTVSPropertyOp56
 70
     1
102
RTVSPropertyOp57
 70
     1
102
RTVSPropertyOp58
 70
     1
102
RTVSPropertyOp59
 70
     1
102
RTVSPropertyOp60
 70
     1
102
RTVSPropertyOp61
 70
     1
102
RTVSPropertyOp62
 70
     1
  0
XRECORD
  5
1192
102
{ACAD_REACTORS
330
1191
102
}
330
1191
100
AcDbXrecord
280
     1
102
RTVSPost2010Prop28
280
     0
102
RTVSPost2010PropOp28
 70
     1
102
RTVSPost2010Prop29
280
     1
102
RTVSPost2010PropOp29
 70
     1
102
RTVSPost2010Prop30
280
     1
102
RTVSPost2010PropOp30
 70
     1
102
RTVSPost2010Prop31
280
     0
102
RTVSPost2010PropOp31
 70
     1
102
RTVSPost2010Prop32
280
     0
102
RTVSPost2010PropOp32
 70
     1
102
RTVSPost2010Prop33
280
     0
102
RTVSPost2010PropOp33
 70
     1
102
RTVSPost2010Prop34
280
     0
102
RTVSPost2010PropOp34
 70
     1
102
RTVSPost2010Prop35
280
     0
102
RTVSPost2010PropOp35
 70
     1
102
RTVSPost2010Prop36
280
     0
102
RTVSPost2010PropOp36
 70
     1
102
RTVSPost2010Prop37
 90
       50
102
RTVSPost2010PropOp37
 70
     1
102
RTVSPost2010Prop38
140
0.0
102
RTVSPost2010PropOp38
 70
     1
102
RTVSPost2010Prop39
140
1.0
102
RTVSPost2010PropOp39
 70
     1
102
RTVSPost2010Prop40
 90
        0
102
RTVSPost2010PropOp40
 70
     1
102
RTVSPost2010Prop41ColorIndex
 90
       18
102
RTVSPost2010Prop41ColorRGB
 90
        0
102
RTVSPost2010PropOp41
 70
     1
102
RTVSPost2010Prop42
 90
       50
102
RTVSPost2010PropOp42
 70
     1
102
RTVSPost2010Prop43
 90
        3
102
RTVSPost2010PropOp43
 70
     1
102
RTVSPost2010Prop44ColorIndex
 90
        5
102
RTVSPost2010Prop44ColorRGB
 90
      255
102
RTVSPost2010PropOp44
 70
     1
102
RTVSPost2010Prop45
280
     0
102
RTVSPost2010PropOp45
 70
     1
102
RTVSPost2010Prop46
 90
       50
102
RTVSPost2010PropOp46
 70
     1
102
RTVSPost2010Prop47
 90
       50
102
RTVSPost2010PropOp47
 70
     1
102
RTVSPost2010Prop48
 90
       50
102
RTVSPost2010PropOp48
 70
     1
102
RTVSPost2010Prop49
280
     0
102
RTVSPost2010PropOp49
 70
     1
102
RTVSPost2010Prop50
 90
       50
102
RTVSPost2010PropOp50
 70
     1
102
RTVSPost2010Prop51ColorIndex
 90
      256
102
RTVSPost2010Prop51ColorRGB
 90
-16777216
102
RTVSPost2010PropOp51
 70
     0
102
RTVSPost2010Prop52
140
1.0
102
RTVSPost2010PropOp52
 70
     0
102
RTVSPost2010Prop53
 90
        2
102
RTVSPost2010PropOp53
 70
     1
102
RTVSPost2010Prop54
  1
strokes_ogs.tif
102
RTVSPost2010PropOp54
 70
     1
102
RTVSPost2010Prop55
280
     0
102
RTVSPost2010PropOp55
 70
     1
102
RTVSPost2010Prop56
140
1.0
102
RTVSPost2010PropOp56
 70
     1
102
RTVSPost2010Prop57
140
1.0
102
RTVSPost2010PropOp57
 70
     1
102
RTVSPropertyOp0
 70
     1
102
RTVSPropertyOp1
 70
     1
102
RTVSPropertyOp2
 70
     1
102
RTVSPropertyOp3
 70
     1
102
RTVSPropertyOp4
 70
     1
102
RTVSPropertyOp5
 70
     1
102
RTVSPropertyOp6
 70
     1
102
RTVSPropertyOp7
 70
     1
102
RTVSPropertyOp8
 70
     1
102
RTVSPropertyOp9
 70
     1
102
RTVSPropertyOp10
 70
     1
102
RTVSPropertyOp11
 70
     1
102
RTVSPropertyOp12
 70
     1
102
RTVSPropertyOp13
 70
     1
102
RTVSPropertyOp14
 70
     1
102
RTVSPropertyOp15
 70
     1
102
RTVSPropertyOp16
 70
     1
102
RTVSPropertyOp17
 70
     1
102
RTVSPropertyOp18
 70
     1
102
RTVSPropertyOp19
 70
     1
102
RTVSPropertyOp20
 70
     1
102
RTVSPropertyOp21
 70
     1
102
RTVSPropertyOp22
 70
     1
102
RTVSPropertyOp23
 70
     1
102
RTVSPropertyOp24
 70
     1
102
RTVSPropertyOp25
 70
     1
102
RTVSPropertyOp26
 70
     1
102
RTVSPropertyOp27
 70
     1
102
RTVSPropertyOp28
 70
     1
102
RTVSPropertyOp29
 70
     1
102
RTVSPropertyOp30
 70
     1
102
RTVSPropertyOp31
 70
     1
102
RTVSPropertyOp32
 70
     1
102
RTVSPropertyOp33
 70
     1
102
RTVSPropertyOp34
 70
     1
102
RTVSPropertyOp35
 70
     1
102
RTVSPropertyOp36
 70
     1
102
RTVSPropertyOp37
 70
     1
102
RTVSPropertyOp38
 70
     1
102
RTVSPropertyOp39
 70
     1
102
RTVSPropertyOp40
 70
     1
102
RTVSPropertyOp41
 70
     1
102
RTVSPropertyOp42
 70
     1
102
RTVSPropertyOp43
 70
     1
102
RTVSPropertyOp44
 70
     1
102
RTVSPropertyOp45
 70
     1
102
RTVSPropertyOp46
 70
     1
102
RTVSPropertyOp47
 70
     1
102
RTVSPropertyOp48
 70
     1
102
RTVSPropertyOp49
 70
     1
102
RTVSPropertyOp50
 70
     1
102
RTVSPropertyOp51
 70
     0
102
RTVSPropertyOp52
 70
     0
102
RTVSPropertyOp53
 70
     1
102
RTVSPropertyOp54
 70
     1
102
RTVSPropertyOp55
 70
     1
102
RTVSPropertyOp56
 70
     1
102
RTVSPropertyOp57
 70
     1
102
RTVSPropertyOp58
 70
     1
102
RTVSPropertyOp59
 70
     1
102
RTVSPropertyOp60
 70
     1
102
RTVSPropertyOp61
 70
     1
102
RTVSPropertyOp62
 70
     1
  0
XRECORD
  5
11A6
102
{ACAD_REACTORS
330
11A5
102
}
330
11A5
100
AcDbXrecord
280
     1
102
RTVSPost2010Prop28
280
     0
102
RTVSPost2010PropOp28
 70
     1
102
RTVSPost2010Prop29
280
     1
102
RTVSPost2010PropOp29
 70
     1
102
RTVSPost2010Prop30
280
     1
102
RTVSPost2010PropOp30
 70
     1
102
RTVSPost2010Prop31
280
     0
102
RTVSPost2010PropOp31
 70
     1
102
RTVSPost2010Prop32
280
     0
102
RTVSPost2010PropOp32
 70
     1
102
RTVSPost2010Prop33
280
     0
102
RTVSPost2010PropOp33
 70
     1
102
RTVSPost2010Prop34
280
     0
102
RTVSPost2010PropOp34
 70
     1
102
RTVSPost2010Prop35
280
     0
102
RTVSPost2010PropOp35
 70
     1
102
RTVSPost2010Prop36
280
     0
102
RTVSPost2010PropOp36
 70
     1
102
RTVSPost2010Prop37
 90
       50
102
RTVSPost2010PropOp37
 70
     1
102
RTVSPost2010Prop38
140
0.0
102
RTVSPost2010PropOp38
 70
     1
102
RTVSPost2010Prop39
140
1.0
102
RTVSPost2010PropOp39
 70
     1
102
RTVSPost2010Prop40
 90
        0
102
RTVSPost2010PropOp40
 70
     1
102
RTVSPost2010Prop41ColorIndex
 90
       18
102
RTVSPost2010Prop41ColorRGB
 90
        0
102
RTVSPost2010PropOp41
 70
     1
102
RTVSPost2010Prop42
 90
       50
102
RTVSPost2010PropOp42
 70
     1
102
RTVSPost2010Prop43
 90
        3
102
RTVSPost2010PropOp43
 70
     1
102
RTVSPost2010Prop44ColorIndex
 90
        5
102
RTVSPost2010Prop44ColorRGB
 90
      255
102
RTVSPost2010PropOp44
 70
     1
102
RTVSPost2010Prop45
280
     0
102
RTVSPost2010PropOp45
 70
     1
102
RTVSPost2010Prop46
 90
       50
102
RTVSPost2010PropOp46
 70
     1
102
RTVSPost2010Prop47
 90
       50
102
RTVSPost2010PropOp47
 70
     1
102
RTVSPost2010Prop48
 90
       50
102
RTVSPost2010PropOp48
 70
     1
102
RTVSPost2010Prop49
280
     0
102
RTVSPost2010PropOp49
 70
     1
102
RTVSPost2010Prop50
 90
       50
102
RTVSPost2010PropOp50
 70
     1
102
RTVSPost2010Prop51ColorIndex
 90
      256
102
RTVSPost2010Prop51ColorRGB
 90
-16777216
102
RTVSPost2010PropOp51
 70
     0
102
RTVSPost2010Prop52
140
1.0
102
RTVSPost2010PropOp52
 70
     0
102
RTVSPost2010Prop53
 90
        2
102
RTVSPost2010PropOp53
 70
     1
102
RTVSPost2010Prop54
  1
strokes_ogs.tif
102
RTVSPost2010PropOp54
 70
     1
102
RTVSPost2010Prop55
280
     0
102
RTVSPost2010PropOp55
 70
     1
102
RTVSPost2010Prop56
140
1.0
102
RTVSPost2010PropOp56
 70
     1
102
RTVSPost2010Prop57
140
1.0
102
RTVSPost2010PropOp57
 70
     1
102
RTVSPropertyOp0
 70
     0
102
RTVSPropertyOp1
 70
     0
102
RTVSPropertyOp2
 70
     0
102
RTVSPropertyOp3
 70
     0
102
RTVSPropertyOp4
 70
     0
102
RTVSPropertyOp5
 70
     0
102
RTVSPropertyOp6
 70
     0
102
RTVSPropertyOp7
 70
     0
102
RTVSPropertyOp8
 70
     0
102
RTVSPropertyOp9
 70
     0
102
RTVSPropertyOp10
 70
     0
102
RTVSPropertyOp11
 70
     0
102
RTVSPropertyOp12
 70
     0
102
RTVSPropertyOp13
 70
     0
102
RTVSPropertyOp14
 70
     2
102
RTVSPropertyOp15
 70
     0
102
RTVSPropertyOp16
 70
     0
102
RTVSPropertyOp17
 70
     0
102
RTVSPropertyOp18
 70
     0
102
RTVSPropertyOp19
 70
     0
102
RTVSPropertyOp20
 70
     0
102
RTVSPropertyOp21
 70
     0
102
RTVSPropertyOp22
 70
     0
102
RTVSPropertyOp23
 70
     0
102
RTVSPropertyOp24
 70
     0
102
RTVSPropertyOp25
 70
     0
102
RTVSPropertyOp26
 70
     0
102
RTVSPropertyOp27
 70
     0
102
RTVSPropertyOp28
 70
     1
102
RTVSPropertyOp29
 70
     1
102
RTVSPropertyOp30
 70
     1
102
RTVSPropertyOp31
 70
     1
102
RTVSPropertyOp32
 70
     1
102
RTVSPropertyOp33
 70
     1
102
RTVSPropertyOp34
 70
     1
102
RTVSPropertyOp35
 70
     1
102
RTVSPropertyOp36
 70
     1
102
RTVSPropertyOp37
 70
     1
102
RTVSPropertyOp38
 70
     1
102
RTVSPropertyOp39
 70
     1
102
RTVSPropertyOp40
 70
     1
102
RTVSPropertyOp41
 70
     1
102
RTVSPropertyOp42
 70
     1
102
RTVSPropertyOp43
 70
     1
102
RTVSPropertyOp44
 70
     1
102
RTVSPropertyOp45
 70
     1
102
RTVSPropertyOp46
 70
     1
102
RTVSPropertyOp47
 70
     1
102
RTVSPropertyOp48
 70
     1
102
RTVSPropertyOp49
 70
     1
102
RTVSPropertyOp50
 70
     1
102
RTVSPropertyOp51
 70
     0
102
RTVSPropertyOp52
 70
     0
102
RTVSPropertyOp53
 70
     1
102
RTVSPropertyOp54
 70
     1
102
RTVSPropertyOp55
 70
     1
102
RTVSPropertyOp56
 70
     1
102
RTVSPropertyOp57
 70
     1
102
RTVSPropertyOp58
 70
     1
102
RTVSPropertyOp59
 70
     1
102
RTVSPropertyOp60
 70
     1
102
RTVSPropertyOp61
 70
     1
102
RTVSPropertyOp62
 70
     1
  0
XRECORD
  5
119E
102
{ACAD_REACTORS
330
119D
102
}
330
119D
100
AcDbXrecord
280
     1
102
RTVSPost2010Prop28
280
     0
102
RTVSPost2010PropOp28
 70
     1
102
RTVSPost2010Prop29
280
     1
102
RTVSPost2010PropOp29
 70
     1
102
RTVSPost2010Prop30
280
     1
102
RTVSPost2010PropOp30
 70
     1
102
RTVSPost2010Prop31
280
     0
102
RTVSPost2010PropOp31
 70
     1
102
RTVSPost2010Prop32
280
     0
102
RTVSPost2010PropOp32
 70
     1
102
RTVSPost2010Prop33
280
     0
102
RTVSPost2010PropOp33
 70
     1
102
RTVSPost2010Prop34
280
     0
102
RTVSPost2010PropOp34
 70
     1
102
RTVSPost2010Prop35
280
     0
102
RTVSPost2010PropOp35
 70
     1
102
RTVSPost2010Prop36
280
     0
102
RTVSPost2010PropOp36
 70
     1
102
RTVSPost2010Prop37
 90
       50
102
RTVSPost2010PropOp37
 70
     1
102
RTVSPost2010Prop38
140
0.0
102
RTVSPost2010PropOp38
 70
     1
102
RTVSPost2010Prop39
140
1.0
102
RTVSPost2010PropOp39
 70
     1
102
RTVSPost2010Prop40
 90
        0
102
RTVSPost2010PropOp40
 70
     1
102
RTVSPost2010Prop41ColorIndex
 90
       18
102
RTVSPost2010Prop41ColorRGB
 90
        0
102
RTVSPost2010PropOp41
 70
     1
102
RTVSPost2010Prop42
 90
       50
102
RTVSPost2010PropOp42
 70
     1
102
RTVSPost2010Prop43
 90
        3
102
RTVSPost2010PropOp43
 70
     1
102
RTVSPost2010Prop44ColorIndex
 90
        5
102
RTVSPost2010Prop44ColorRGB
 90
      255
102
RTVSPost2010PropOp44
 70
     1
102
RTVSPost2010Prop45
280
     0
102
RTVSPost2010PropOp45
 70
     1
102
RTVSPost2010Prop46
 90
       50
102
RTVSPost2010PropOp46
 70
     1
102
RTVSPost2010Prop47
 90
       50
102
RTVSPost2010PropOp47
 70
     1
102
RTVSPost2010Prop48
 90
       50
102
RTVSPost2010PropOp48
 70
     1
102
RTVSPost2010Prop49
280
     0
102
RTVSPost2010PropOp49
 70
     1
102
RTVSPost2010Prop50
 90
       50
102
RTVSPost2010PropOp50
 70
     1
102
RTVSPost2010Prop51ColorIndex
 90
      256
102
RTVSPost2010Prop51ColorRGB
 90
-16777216
102
RTVSPost2010PropOp51
 70
     0
102
RTVSPost2010Prop52
140
1.0
102
RTVSPost2010PropOp52
 70
     0
102
RTVSPost2010Prop53
 90
        2
102
RTVSPost2010PropOp53
 70
     1
102
RTVSPost2010Prop54
  1
strokes_ogs.tif
102
RTVSPost2010PropOp54
 70
     1
102
RTVSPost2010Prop55
280
     0
102
RTVSPost2010PropOp55
 70
     1
102
RTVSPost2010Prop56
140
1.0
102
RTVSPost2010PropOp56
 70
     1
102
RTVSPost2010Prop57
140
1.0
102
RTVSPost2010PropOp57
 70
     1
102
RTVSPropertyOp0
 70
     1
102
RTVSPropertyOp1
 70
     1
102
RTVSPropertyOp2
 70
     1
102
RTVSPropertyOp3
 70
     1
102
RTVSPropertyOp4
 70
     1
102
RTVSPropertyOp5
 70
     1
102
RTVSPropertyOp6
 70
     1
102
RTVSPropertyOp7
 70
     1
102
RTVSPropertyOp8
 70
     1
102
RTVSPropertyOp9
 70
     1
102
RTVSPropertyOp10
 70
     1
102
RTVSPropertyOp11
 70
     1
102
RTVSPropertyOp12
 70
     1
102
RTVSPropertyOp13
 70
     1
102
RTVSPropertyOp14
 70
     1
102
RTVSPropertyOp15
 70
     1
102
RTVSPropertyOp16
 70
     1
102
RTVSPropertyOp17
 70
     1
102
RTVSPropertyOp18
 70
     1
102
RTVSPropertyOp19
 70
     1
102
RTVSPropertyOp20
 70
     1
102
RTVSPropertyOp21
 70
     1
102
RTVSPropertyOp22
 70
     1
102
RTVSPropertyOp23
 70
     1
102
RTVSPropertyOp24
 70
     1
102
RTVSPropertyOp25
 70
     1
102
RTVSPropertyOp26
 70
     1
102
RTVSPropertyOp27
 70
     1
102
RTVSPropertyOp28
 70
     1
102
RTVSPropertyOp29
 70
     1
102
RTVSPropertyOp30
 70
     1
102
RTVSPropertyOp31
 70
     1
102
RTVSPropertyOp32
 70
     1
102
RTVSPropertyOp33
 70
     1
102
RTVSPropertyOp34
 70
     1
102
RTVSPropertyOp35
 70
     1
102
RTVSPropertyOp36
 70
     1
102
RTVSPropertyOp37
 70
     1
102
RTVSPropertyOp38
 70
     1
102
RTVSPropertyOp39
 70
     1
102
RTVSPropertyOp40
 70
     1
102
RTVSPropertyOp41
 70
     1
102
RTVSPropertyOp42
 70
     1
102
RTVSPropertyOp43
 70
     1
102
RTVSPropertyOp44
 70
     1
102
RTVSPropertyOp45
 70
     1
102
RTVSPropertyOp46
 70
     1
102
RTVSPropertyOp47
 70
     1
102
RTVSPropertyOp48
 70
     1
102
RTVSPropertyOp49
 70
     1
102
RTVSPropertyOp50
 70
     1
102
RTVSPropertyOp51
 70
     0
102
RTVSPropertyOp52
 70
     0
102
RTVSPropertyOp53
 70
     1
102
RTVSPropertyOp54
 70
     1
102
RTVSPropertyOp55
 70
     1
102
RTVSPropertyOp56
 70
     1
102
RTVSPropertyOp57
 70
     1
102
RTVSPropertyOp58
 70
     1
102
RTVSPropertyOp59
 70
     1
102
RTVSPropertyOp60
 70
     1
102
RTVSPropertyOp61
 70
     1
102
RTVSPropertyOp62
 70
     1
  0
XRECORD
  5
11A8
102
{ACAD_REACTORS
330
11A7
102
}
330
11A7
100
AcDbXrecord
280
     1
102
RTVSPost2010Prop28
280
     0
102
RTVSPost2010PropOp28
 70
     1
102
RTVSPost2010Prop29
280
     1
102
RTVSPost2010PropOp29
 70
     1
102
RTVSPost2010Prop30
280
     1
102
RTVSPost2010PropOp30
 70
     1
102
RTVSPost2010Prop31
280
     0
102
RTVSPost2010PropOp31
 70
     1
102
RTVSPost2010Prop32
280
     0
102
RTVSPost2010PropOp32
 70
     1
102
RTVSPost2010Prop33
280
     0
102
RTVSPost2010PropOp33
 70
     1
102
RTVSPost2010Prop34
280
     0
102
RTVSPost2010PropOp34
 70
     1
102
RTVSPost2010Prop35
280
     0
102
RTVSPost2010PropOp35
 70
     1
102
RTVSPost2010Prop36
280
     0
102
RTVSPost2010PropOp36
 70
     1
102
RTVSPost2010Prop37
 90
       50
102
RTVSPost2010PropOp37
 70
     1
102
RTVSPost2010Prop38
140
0.0
102
RTVSPost2010PropOp38
 70
     1
102
RTVSPost2010Prop39
140
1.0
102
RTVSPost2010PropOp39
 70
     1
102
RTVSPost2010Prop40
 90
        0
102
RTVSPost2010PropOp40
 70
     1
102
RTVSPost2010Prop41ColorIndex
 90
       18
102
RTVSPost2010Prop41ColorRGB
 90
        0
102
RTVSPost2010PropOp41
 70
     1
102
RTVSPost2010Prop42
 90
       50
102
RTVSPost2010PropOp42
 70
     1
102
RTVSPost2010Prop43
 90
        3
102
RTVSPost2010PropOp43
 70
     1
102
RTVSPost2010Prop44ColorIndex
 90
        5
102
RTVSPost2010Prop44ColorRGB
 90
      255
102
RTVSPost2010PropOp44
 70
     1
102
RTVSPost2010Prop45
280
     0
102
RTVSPost2010PropOp45
 70
     1
102
RTVSPost2010Prop46
 90
       50
102
RTVSPost2010PropOp46
 70
     1
102
RTVSPost2010Prop47
 90
       50
102
RTVSPost2010PropOp47
 70
     1
102
RTVSPost2010Prop48
 90
       50
102
RTVSPost2010PropOp48
 70
     1
102
RTVSPost2010Prop49
280
     0
102
RTVSPost2010PropOp49
 70
     1
102
RTVSPost2010Prop50
 90
       50
102
RTVSPost2010PropOp50
 70
     1
102
RTVSPost2010Prop51ColorIndex
 90
      256
102
RTVSPost2010Prop51ColorRGB
 90
-16777216
102
RTVSPost2010PropOp51
 70
     0
102
RTVSPost2010Prop52
140
1.0
102
RTVSPost2010PropOp52
 70
     0
102
RTVSPost2010Prop53
 90
        2
102
RTVSPost2010PropOp53
 70
     1
102
RTVSPost2010Prop54
  1
strokes_ogs.tif
102
RTVSPost2010PropOp54
 70
     1
102
RTVSPost2010Prop55
280
     0
102
RTVSPost2010PropOp55
 70
     1
102
RTVSPost2010Prop56
140
1.0
102
RTVSPost2010PropOp56
 70
     1
102
RTVSPost2010Prop57
140
1.0
102
RTVSPost2010PropOp57
 70
     1
102
RTVSPropertyOp0
 70
     0
102
RTVSPropertyOp1
 70
     0
102
RTVSPropertyOp2
 70
     0
102
RTVSPropertyOp3
 70
     0
102
RTVSPropertyOp4
 70
     0
102
RTVSPropertyOp5
 70
     0
102
RTVSPropertyOp6
 70
     0
102
RTVSPropertyOp7
 70
     0
102
RTVSPropertyOp8
 70
     0
102
RTVSPropertyOp9
 70
     0
102
RTVSPropertyOp10
 70
     0
102
RTVSPropertyOp11
 70
     0
102
RTVSPropertyOp12
 70
     0
102
RTVSPropertyOp13
 70
     0
102
RTVSPropertyOp14
 70
     2
102
RTVSPropertyOp15
 70
     0
102
RTVSPropertyOp16
 70
     0
102
RTVSPropertyOp17
 70
     0
102
RTVSPropertyOp18
 70
     0
102
RTVSPropertyOp19
 70
     0
102
RTVSPropertyOp20
 70
     0
102
RTVSPropertyOp21
 70
     0
102
RTVSPropertyOp22
 70
     0
102
RTVSPropertyOp23
 70
     0
102
RTVSPropertyOp24
 70
     0
102
RTVSPropertyOp25
 70
     0
102
RTVSPropertyOp26
 70
     0
102
RTVSPropertyOp27
 70
     0
102
RTVSPropertyOp28
 70
     1
102
RTVSPropertyOp29
 70
     1
102
RTVSPropertyOp30
 70
     1
102
RTVSPropertyOp31
 70
     1
102
RTVSPropertyOp32
 70
     1
102
RTVSPropertyOp33
 70
     1
102
RTVSPropertyOp34
 70
     1
102
RTVSPropertyOp35
 70
     1
102
RTVSPropertyOp36
 70
     1
102
RTVSPropertyOp37
 70
     1
102
RTVSPropertyOp38
 70
     1
102
RTVSPropertyOp39
 70
     1
102
RTVSPropertyOp40
 70
     1
102
RTVSPropertyOp41
 70
     1
102
RTVSPropertyOp42
 70
     1
102
RTVSPropertyOp43
 70
     1
102
RTVSPropertyOp44
 70
     1
102
RTVSPropertyOp45
 70
     1
102
RTVSPropertyOp46
 70
     1
102
RTVSPropertyOp47
 70
     1
102
RTVSPropertyOp48
 70
     1
102
RTVSPropertyOp49
 70
     1
102
RTVSPropertyOp50
 70
     1
102
RTVSPropertyOp51
 70
     0
102
RTVSPropertyOp52
 70
     0
102
RTVSPropertyOp53
 70
     1
102
RTVSPropertyOp54
 70
     1
102
RTVSPropertyOp55
 70
     1
102
RTVSPropertyOp56
 70
     1
102
RTVSPropertyOp57
 70
     1
102
RTVSPropertyOp58
 70
     1
102
RTVSPropertyOp59
 70
     1
102
RTVSPropertyOp60
 70
     1
102
RTVSPropertyOp61
 70
     1
102
RTVSPropertyOp62
 70
     1
  0
XRECORD
  5
1196
102
{ACAD_REACTORS
330
1195
102
}
330
1195
100
AcDbXrecord
280
     1
102
RTVSPost2010Prop28
280
     0
102
RTVSPost2010PropOp28
 70
     1
102
RTVSPost2010Prop29
280
     1
102
RTVSPost2010PropOp29
 70
     1
102
RTVSPost2010Prop30
280
     1
102
RTVSPost2010PropOp30
 70
     1
102
RTVSPost2010Prop31
280
     0
102
RTVSPost2010PropOp31
 70
     1
102
RTVSPost2010Prop32
280
     0
102
RTVSPost2010PropOp32
 70
     1
102
RTVSPost2010Prop33
280
     0
102
RTVSPost2010PropOp33
 70
     1
102
RTVSPost2010Prop34
280
     0
102
RTVSPost2010PropOp34
 70
     1
102
RTVSPost2010Prop35
280
     0
102
RTVSPost2010PropOp35
 70
     1
102
RTVSPost2010Prop36
280
     0
102
RTVSPost2010PropOp36
 70
     1
102
RTVSPost2010Prop37
 90
       50
102
RTVSPost2010PropOp37
 70
     1
102
RTVSPost2010Prop38
140
0.0
102
RTVSPost2010PropOp38
 70
     1
102
RTVSPost2010Prop39
140
1.0
102
RTVSPost2010PropOp39
 70
     1
102
RTVSPost2010Prop40
 90
        0
102
RTVSPost2010PropOp40
 70
     1
102
RTVSPost2010Prop41ColorIndex
 90
       18
102
RTVSPost2010Prop41ColorRGB
 90
        0
102
RTVSPost2010PropOp41
 70
     1
102
RTVSPost2010Prop42
 90
       50
102
RTVSPost2010PropOp42
 70
     1
102
RTVSPost2010Prop43
 90
        3
102
RTVSPost2010PropOp43
 70
     1
102
RTVSPost2010Prop44ColorIndex
 90
        5
102
RTVSPost2010Prop44ColorRGB
 90
      255
102
RTVSPost2010PropOp44
 70
     1
102
RTVSPost2010Prop45
280
     0
102
RTVSPost2010PropOp45
 70
     1
102
RTVSPost2010Prop46
 90
       50
102
RTVSPost2010PropOp46
 70
     1
102
RTVSPost2010Prop47
 90
       50
102
RTVSPost2010PropOp47
 70
     1
102
RTVSPost2010Prop48
 90
       50
102
RTVSPost2010PropOp48
 70
     1
102
RTVSPost2010Prop49
280
     0
102
RTVSPost2010PropOp49
 70
     1
102
RTVSPost2010Prop50
 90
       50
102
RTVSPost2010PropOp50
 70
     1
102
RTVSPost2010Prop51ColorIndex
 90
      256
102
RTVSPost2010Prop51ColorRGB
 90
-16777216
102
RTVSPost2010PropOp51
 70
     0
102
RTVSPost2010Prop52
140
1.0
102
RTVSPost2010PropOp52
 70
     0
102
RTVSPost2010Prop53
 90
        2
102
RTVSPost2010PropOp53
 70
     1
102
RTVSPost2010Prop54
  1
strokes_ogs.tif
102
RTVSPost2010PropOp54
 70
     1
102
RTVSPost2010Prop55
280
     0
102
RTVSPost2010PropOp55
 70
     1
102
RTVSPost2010Prop56
140
1.0
102
RTVSPost2010PropOp56
 70
     1
102
RTVSPost2010Prop57
140
1.0
102
RTVSPost2010PropOp57
 70
     1
102
RTVSPropertyOp0
 70
     1
102
RTVSPropertyOp1
 70
     1
102
RTVSPropertyOp2
 70
     1
102
RTVSPropertyOp3
 70
     1
102
RTVSPropertyOp4
 70
     1
102
RTVSPropertyOp5
 70
     1
102
RTVSPropertyOp6
 70
     1
102
RTVSPropertyOp7
 70
     1
102
RTVSPropertyOp8
 70
     1
102
RTVSPropertyOp9
 70
     1
102
RTVSPropertyOp10
 70
     1
102
RTVSPropertyOp11
 70
     1
102
RTVSPropertyOp12
 70
     1
102
RTVSPropertyOp13
 70
     1
102
RTVSPropertyOp14
 70
     1
102
RTVSPropertyOp15
 70
     1
102
RTVSPropertyOp16
 70
     1
102
RTVSPropertyOp17
 70
     1
102
RTVSPropertyOp18
 70
     1
102
RTVSPropertyOp19
 70
     1
102
RTVSPropertyOp20
 70
     1
102
RTVSPropertyOp21
 70
     1
102
RTVSPropertyOp22
 70
     1
102
RTVSPropertyOp23
 70
     1
102
RTVSPropertyOp24
 70
     1
102
RTVSPropertyOp25
 70
     1
102
RTVSPropertyOp26
 70
     1
102
RTVSPropertyOp27
 70
     1
102
RTVSPropertyOp28
 70
     1
102
RTVSPropertyOp29
 70
     1
102
RTVSPropertyOp30
 70
     1
102
RTVSPropertyOp31
 70
     1
102
RTVSPropertyOp32
 70
     1
102
RTVSPropertyOp33
 70
     1
102
RTVSPropertyOp34
 70
     1
102
RTVSPropertyOp35
 70
     1
102
RTVSPropertyOp36
 70
     1
102
RTVSPropertyOp37
 70
     1
102
RTVSPropertyOp38
 70
     1
102
RTVSPropertyOp39
 70
     1
102
RTVSPropertyOp40
 70
     1
102
RTVSPropertyOp41
 70
     1
102
RTVSPropertyOp42
 70
     1
102
RTVSPropertyOp43
 70
     1
102
RTVSPropertyOp44
 70
     1
102
RTVSPropertyOp45
 70
     1
102
RTVSPropertyOp46
 70
     1
102
RTVSPropertyOp47
 70
     1
102
RTVSPropertyOp48
 70
     1
102
RTVSPropertyOp49
 70
     1
102
RTVSPropertyOp50
 70
     1
102
RTVSPropertyOp51
 70
     0
102
RTVSPropertyOp52
 70
     0
102
RTVSPropertyOp53
 70
     1
102
RTVSPropertyOp54
 70
     1
102
RTVSPropertyOp55
 70
     1
102
RTVSPropertyOp56
 70
     1
102
RTVSPropertyOp57
 70
     1
102
RTVSPropertyOp58
 70
     1
102
RTVSPropertyOp59
 70
     1
102
RTVSPropertyOp60
 70
     1
102
RTVSPropertyOp61
 70
     1
102
RTVSPropertyOp62
 70
     1
  0
XRECORD
  5
11B4
102
{ACAD_REACTORS
330
11B3
102
}
330
11B3
100
AcDbXrecord
280
     1
102
RTVSPost2010Prop28
280
     0
102
RTVSPost2010PropOp28
 70
     1
102
RTVSPost2010Prop29
280
     1
102
RTVSPost2010PropOp29
 70
     1
102
RTVSPost2010Prop30
280
     1
102
RTVSPost2010PropOp30
 70
     1
102
RTVSPost2010Prop31
280
     0
102
RTVSPost2010PropOp31
 70
     1
102
RTVSPost2010Prop32
280
     0
102
RTVSPost2010PropOp32
 70
     1
102
RTVSPost2010Prop33
280
     0
102
RTVSPost2010PropOp33
 70
     1
102
RTVSPost2010Prop34
280
     0
102
RTVSPost2010PropOp34
 70
     1
102
RTVSPost2010Prop35
280
     0
102
RTVSPost2010PropOp35
 70
     1
102
RTVSPost2010Prop36
280
     0
102
RTVSPost2010PropOp36
 70
     1
102
RTVSPost2010Prop37
 90
       50
102
RTVSPost2010PropOp37
 70
     1
102
RTVSPost2010Prop38
140
0.0
102
RTVSPost2010PropOp38
 70
     1
102
RTVSPost2010Prop39
140
1.0
102
RTVSPost2010PropOp39
 70
     1
102
RTVSPost2010Prop40
 90
        0
102
RTVSPost2010PropOp40
 70
     1
102
RTVSPost2010Prop41ColorIndex
 90
       18
102
RTVSPost2010Prop41ColorRGB
 90
        0
102
RTVSPost2010PropOp41
 70
     1
102
RTVSPost2010Prop42
 90
       50
102
RTVSPost2010PropOp42
 70
     1
102
RTVSPost2010Prop43
 90
        3
102
RTVSPost2010PropOp43
 70
     1
102
RTVSPost2010Prop44ColorIndex
 90
        5
102
RTVSPost2010Prop44ColorRGB
 90
      255
102
RTVSPost2010PropOp44
 70
     1
102
RTVSPost2010Prop45
280
     0
102
RTVSPost2010PropOp45
 70
     1
102
RTVSPost2010Prop46
 90
       50
102
RTVSPost2010PropOp46
 70
     1
102
RTVSPost2010Prop47
 90
       50
102
RTVSPost2010PropOp47
 70
     1
102
RTVSPost2010Prop48
 90
       50
102
RTVSPost2010PropOp48
 70
     1
102
RTVSPost2010Prop49
280
     0
102
RTVSPost2010PropOp49
 70
     1
102
RTVSPost2010Prop50
 90
       50
102
RTVSPost2010PropOp50
 70
     1
102
RTVSPost2010Prop51ColorIndex
 90
      256
102
RTVSPost2010Prop51ColorRGB
 90
-16777216
102
RTVSPost2010PropOp51
 70
     0
102
RTVSPost2010Prop52
140
1.0
102
RTVSPost2010PropOp52
 70
     0
102
RTVSPost2010Prop53
 90
        2
102
RTVSPost2010PropOp53
 70
     1
102
RTVSPost2010Prop54
  1
strokes_ogs.tif
102
RTVSPost2010PropOp54
 70
     1
102
RTVSPost2010Prop55
280
     0
102
RTVSPost2010PropOp55
 70
     1
102
RTVSPost2010Prop56
140
1.0
102
RTVSPost2010PropOp56
 70
     1
102
RTVSPost2010Prop57
140
1.0
102
RTVSPost2010PropOp57
 70
     1
102
RTVSPropertyOp0
 70
     1
102
RTVSPropertyOp1
 70
     1
102
RTVSPropertyOp2
 70
     1
102
RTVSPropertyOp3
 70
     1
102
RTVSPropertyOp4
 70
     1
102
RTVSPropertyOp5
 70
     1
102
RTVSPropertyOp6
 70
     1
102
RTVSPropertyOp7
 70
     1
102
RTVSPropertyOp8
 70
     1
102
RTVSPropertyOp9
 70
     1
102
RTVSPropertyOp10
 70
     1
102
RTVSPropertyOp11
 70
     1
102
RTVSPropertyOp12
 70
     1
102
RTVSPropertyOp13
 70
     1
102
RTVSPropertyOp14
 70
     1
102
RTVSPropertyOp15
 70
     1
102
RTVSPropertyOp16
 70
     1
102
RTVSPropertyOp17
 70
     1
102
RTVSPropertyOp18
 70
     1
102
RTVSPropertyOp19
 70
     1
102
RTVSPropertyOp20
 70
     1
102
RTVSPropertyOp21
 70
     1
102
RTVSPropertyOp22
 70
     1
102
RTVSPropertyOp23
 70
     1
102
RTVSPropertyOp24
 70
     1
102
RTVSPropertyOp25
 70
     1
102
RTVSPropertyOp26
 70
     1
102
RTVSPropertyOp27
 70
     1
102
RTVSPropertyOp28
 70
     1
102
RTVSPropertyOp29
 70
     1
102
RTVSPropertyOp30
 70
     1
102
RTVSPropertyOp31
 70
     1
102
RTVSPropertyOp32
 70
     1
102
RTVSPropertyOp33
 70
     1
102
RTVSPropertyOp34
 70
     1
102
RTVSPropertyOp35
 70
     1
102
RTVSPropertyOp36
 70
     1
102
RTVSPropertyOp37
 70
     1
102
RTVSPropertyOp38
 70
     1
102
RTVSPropertyOp39
 70
     1
102
RTVSPropertyOp40
 70
     1
102
RTVSPropertyOp41
 70
     1
102
RTVSPropertyOp42
 70
     1
102
RTVSPropertyOp43
 70
     1
102
RTVSPropertyOp44
 70
     1
102
RTVSPropertyOp45
 70
     1
102
RTVSPropertyOp46
 70
     1
102
RTVSPropertyOp47
 70
     1
102
RTVSPropertyOp48
 70
     1
102
RTVSPropertyOp49
 70
     1
102
RTVSPropertyOp50
 70
     1
102
RTVSPropertyOp51
 70
     0
102
RTVSPropertyOp52
 70
     0
102
RTVSPropertyOp53
 70
     1
102
RTVSPropertyOp54
 70
     1
102
RTVSPropertyOp55
 70
     1
102
RTVSPropertyOp56
 70
     1
102
RTVSPropertyOp57
 70
     1
102
RTVSPropertyOp58
 70
     1
102
RTVSPropertyOp59
 70
     1
102
RTVSPropertyOp60
 70
     1
102
RTVSPropertyOp61
 70
     1
102
RTVSPropertyOp62
 70
     1
  0
XRECORD
  5
11B2
102
{ACAD_REACTORS
330
11B1
102
}
330
11B1
100
AcDbXrecord
280
     1
102
RTVSPost2010Prop28
280
     0
102
RTVSPost2010PropOp28
 70
     1
102
RTVSPost2010Prop29
280
     1
102
RTVSPost2010PropOp29
 70
     1
102
RTVSPost2010Prop30
280
     1
102
RTVSPost2010PropOp30
 70
     1
102
RTVSPost2010Prop31
280
     0
102
RTVSPost2010PropOp31
 70
     1
102
RTVSPost2010Prop32
280
     0
102
RTVSPost2010PropOp32
 70
     1
102
RTVSPost2010Prop33
280
     0
102
RTVSPost2010PropOp33
 70
     1
102
RTVSPost2010Prop34
280
     0
102
RTVSPost2010PropOp34
 70
     1
102
RTVSPost2010Prop35
280
     0
102
RTVSPost2010PropOp35
 70
     1
102
RTVSPost2010Prop36
280
     0
102
RTVSPost2010PropOp36
 70
     1
102
RTVSPost2010Prop37
 90
       50
102
RTVSPost2010PropOp37
 70
     1
102
RTVSPost2010Prop38
140
0.0
102
RTVSPost2010PropOp38
 70
     1
102
RTVSPost2010Prop39
140
1.0
102
RTVSPost2010PropOp39
 70
     1
102
RTVSPost2010Prop40
 90
        0
102
RTVSPost2010PropOp40
 70
     1
102
RTVSPost2010Prop41ColorIndex
 90
       18
102
RTVSPost2010Prop41ColorRGB
 90
        0
102
RTVSPost2010PropOp41
 70
     1
102
RTVSPost2010Prop42
 90
       50
102
RTVSPost2010PropOp42
 70
     1
102
RTVSPost2010Prop43
 90
        3
102
RTVSPost2010PropOp43
 70
     1
102
RTVSPost2010Prop44ColorIndex
 90
        5
102
RTVSPost2010Prop44ColorRGB
 90
      255
102
RTVSPost2010PropOp44
 70
     1
102
RTVSPost2010Prop45
280
     0
102
RTVSPost2010PropOp45
 70
     1
102
RTVSPost2010Prop46
 90
       50
102
RTVSPost2010PropOp46
 70
     1
102
RTVSPost2010Prop47
 90
       50
102
RTVSPost2010PropOp47
 70
     1
102
RTVSPost2010Prop48
 90
       50
102
RTVSPost2010PropOp48
 70
     1
102
RTVSPost2010Prop49
280
     0
102
RTVSPost2010PropOp49
 70
     1
102
RTVSPost2010Prop50
 90
       50
102
RTVSPost2010PropOp50
 70
     1
102
RTVSPost2010Prop51ColorIndex
 90
      256
102
RTVSPost2010Prop51ColorRGB
 90
-16777216
102
RTVSPost2010PropOp51
 70
     0
102
RTVSPost2010Prop52
140
1.0
102
RTVSPost2010PropOp52
 70
     0
102
RTVSPost2010Prop53
 90
        2
102
RTVSPost2010PropOp53
 70
     1
102
RTVSPost2010Prop54
  1
strokes_ogs.tif
102
RTVSPost2010PropOp54
 70
     1
102
RTVSPost2010Prop55
280
     0
102
RTVSPost2010PropOp55
 70
     1
102
RTVSPost2010Prop56
140
1.0
102
RTVSPost2010PropOp56
 70
     1
102
RTVSPost2010Prop57
140
1.0
102
RTVSPost2010PropOp57
 70
     1
102
RTVSPropertyOp0
 70
     1
102
RTVSPropertyOp1
 70
     1
102
RTVSPropertyOp2
 70
     1
102
RTVSPropertyOp3
 70
     1
102
RTVSPropertyOp4
 70
     1
102
RTVSPropertyOp5
 70
     1
102
RTVSPropertyOp6
 70
     1
102
RTVSPropertyOp7
 70
     1
102
RTVSPropertyOp8
 70
     1
102
RTVSPropertyOp9
 70
     1
102
RTVSPropertyOp10
 70
     1
102
RTVSPropertyOp11
 70
     1
102
RTVSPropertyOp12
 70
     1
102
RTVSPropertyOp13
 70
     1
102
RTVSPropertyOp14
 70
     1
102
RTVSPropertyOp15
 70
     1
102
RTVSPropertyOp16
 70
     1
102
RTVSPropertyOp17
 70
     1
102
RTVSPropertyOp18
 70
     1
102
RTVSPropertyOp19
 70
     1
102
RTVSPropertyOp20
 70
     1
102
RTVSPropertyOp21
 70
     1
102
RTVSPropertyOp22
 70
     1
102
RTVSPropertyOp23
 70
     1
102
RTVSPropertyOp24
 70
     1
102
RTVSPropertyOp25
 70
     1
102
RTVSPropertyOp26
 70
     1
102
RTVSPropertyOp27
 70
     1
102
RTVSPropertyOp28
 70
     1
102
RTVSPropertyOp29
 70
     1
102
RTVSPropertyOp30
 70
     1
102
RTVSPropertyOp31
 70
     1
102
RTVSPropertyOp32
 70
     1
102
RTVSPropertyOp33
 70
     1
102
RTVSPropertyOp34
 70
     1
102
RTVSPropertyOp35
 70
     1
102
RTVSPropertyOp36
 70
     1
102
RTVSPropertyOp37
 70
     1
102
RTVSPropertyOp38
 70
     1
102
RTVSPropertyOp39
 70
     1
102
RTVSPropertyOp40
 70
     1
102
RTVSPropertyOp41
 70
     1
102
RTVSPropertyOp42
 70
     1
102
RTVSPropertyOp43
 70
     1
102
RTVSPropertyOp44
 70
     1
102
RTVSPropertyOp45
 70
     1
102
RTVSPropertyOp46
 70
     1
102
RTVSPropertyOp47
 70
     1
102
RTVSPropertyOp48
 70
     1
102
RTVSPropertyOp49
 70
     1
102
RTVSPropertyOp50
 70
     1
102
RTVSPropertyOp51
 70
     0
102
RTVSPropertyOp52
 70
     0
102
RTVSPropertyOp53
 70
     1
102
RTVSPropertyOp54
 70
     1
102
RTVSPropertyOp55
 70
     1
102
RTVSPropertyOp56
 70
     1
102
RTVSPropertyOp57
 70
     1
102
RTVSPropertyOp58
 70
     1
102
RTVSPropertyOp59
 70
     1
102
RTVSPropertyOp60
 70
     1
102
RTVSPropertyOp61
 70
     1
102
RTVSPropertyOp62
 70
     1
  0
XRECORD
  5
11AC
102
{ACAD_REACTORS
330
11AB
102
}
330
11AB
100
AcDbXrecord
280
     1
102
RTVSPost2010Prop28
280
     0
102
RTVSPost2010PropOp28
 70
     1
102
RTVSPost2010Prop29
280
     1
102
RTVSPost2010PropOp29
 70
     1
102
RTVSPost2010Prop30
280
     1
102
RTVSPost2010PropOp30
 70
     1
102
RTVSPost2010Prop31
280
     0
102
RTVSPost2010PropOp31
 70
     1
102
RTVSPost2010Prop32
280
     0
102
RTVSPost2010PropOp32
 70
     1
102
RTVSPost2010Prop33
280
     0
102
RTVSPost2010PropOp33
 70
     1
102
RTVSPost2010Prop34
280
     0
102
RTVSPost2010PropOp34
 70
     1
102
RTVSPost2010Prop35
280
     0
102
RTVSPost2010PropOp35
 70
     1
102
RTVSPost2010Prop36
280
     0
102
RTVSPost2010PropOp36
 70
     1
102
RTVSPost2010Prop37
 90
       50
102
RTVSPost2010PropOp37
 70
     1
102
RTVSPost2010Prop38
140
0.0
102
RTVSPost2010PropOp38
 70
     1
102
RTVSPost2010Prop39
140
1.0
102
RTVSPost2010PropOp39
 70
     1
102
RTVSPost2010Prop40
 90
        0
102
RTVSPost2010PropOp40
 70
     1
102
RTVSPost2010Prop41ColorIndex
 90
       18
102
RTVSPost2010Prop41ColorRGB
 90
        0
102
RTVSPost2010PropOp41
 70
     1
102
RTVSPost2010Prop42
 90
       50
102
RTVSPost2010PropOp42
 70
     1
102
RTVSPost2010Prop43
 90
        3
102
RTVSPost2010PropOp43
 70
     1
102
RTVSPost2010Prop44ColorIndex
 90
        5
102
RTVSPost2010Prop44ColorRGB
 90
      255
102
RTVSPost2010PropOp44
 70
     1
102
RTVSPost2010Prop45
280
     0
102
RTVSPost2010PropOp45
 70
     1
102
RTVSPost2010Prop46
 90
       50
102
RTVSPost2010PropOp46
 70
     1
102
RTVSPost2010Prop47
 90
       50
102
RTVSPost2010PropOp47
 70
     1
102
RTVSPost2010Prop48
 90
       50
102
RTVSPost2010PropOp48
 70
     1
102
RTVSPost2010Prop49
280
     0
102
RTVSPost2010PropOp49
 70
     1
102
RTVSPost2010Prop50
 90
       50
102
RTVSPost2010PropOp50
 70
     1
102
RTVSPost2010Prop51ColorIndex
 90
      256
102
RTVSPost2010Prop51ColorRGB
 90
-16777216
102
RTVSPost2010PropOp51
 70
     0
102
RTVSPost2010Prop52
140
1.0
102
RTVSPost2010PropOp52
 70
     0
102
RTVSPost2010Prop53
 90
        2
102
RTVSPost2010PropOp53
 70
     1
102
RTVSPost2010Prop54
  1
strokes_ogs.tif
102
RTVSPost2010PropOp54
 70
     1
102
RTVSPost2010Prop55
280
     0
102
RTVSPost2010PropOp55
 70
     1
102
RTVSPost2010Prop56
140
1.0
102
RTVSPost2010PropOp56
 70
     1
102
RTVSPost2010Prop57
140
1.0
102
RTVSPost2010PropOp57
 70
     1
102
RTVSPropertyOp0
 70
     1
102
RTVSPropertyOp1
 70
     1
102
RTVSPropertyOp2
 70
     1
102
RTVSPropertyOp3
 70
     1
102
RTVSPropertyOp4
 70
     1
102
RTVSPropertyOp5
 70
     1
102
RTVSPropertyOp6
 70
     1
102
RTVSPropertyOp7
 70
     1
102
RTVSPropertyOp8
 70
     1
102
RTVSPropertyOp9
 70
     1
102
RTVSPropertyOp10
 70
     1
102
RTVSPropertyOp11
 70
     1
102
RTVSPropertyOp12
 70
     1
102
RTVSPropertyOp13
 70
     1
102
RTVSPropertyOp14
 70
     1
102
RTVSPropertyOp15
 70
     1
102
RTVSPropertyOp16
 70
     1
102
RTVSPropertyOp17
 70
     1
102
RTVSPropertyOp18
 70
     1
102
RTVSPropertyOp19
 70
     1
102
RTVSPropertyOp20
 70
     1
102
RTVSPropertyOp21
 70
     1
102
RTVSPropertyOp22
 70
     1
102
RTVSPropertyOp23
 70
     1
102
RTVSPropertyOp24
 70
     1
102
RTVSPropertyOp25
 70
     1
102
RTVSPropertyOp26
 70
     1
102
RTVSPropertyOp27
 70
     1
102
RTVSPropertyOp28
 70
     1
102
RTVSPropertyOp29
 70
     1
102
RTVSPropertyOp30
 70
     1
102
RTVSPropertyOp31
 70
     1
102
RTVSPropertyOp32
 70
     1
102
RTVSPropertyOp33
 70
     1
102
RTVSPropertyOp34
 70
     1
102
RTVSPropertyOp35
 70
     1
102
RTVSPropertyOp36
 70
     1
102
RTVSPropertyOp37
 70
     1
102
RTVSPropertyOp38
 70
     1
102
RTVSPropertyOp39
 70
     1
102
RTVSPropertyOp40
 70
     1
102
RTVSPropertyOp41
 70
     1
102
RTVSPropertyOp42
 70
     1
102
RTVSPropertyOp43
 70
     1
102
RTVSPropertyOp44
 70
     1
102
RTVSPropertyOp45
 70
     1
102
RTVSPropertyOp46
 70
     1
102
RTVSPropertyOp47
 70
     1
102
RTVSPropertyOp48
 70
     1
102
RTVSPropertyOp49
 70
     1
102
RTVSPropertyOp50
 70
     1
102
RTVSPropertyOp51
 70
     0
102
RTVSPropertyOp52
 70
     0
102
RTVSPropertyOp53
 70
     1
102
RTVSPropertyOp54
 70
     1
102
RTVSPropertyOp55
 70
     1
102
RTVSPropertyOp56
 70
     1
102
RTVSPropertyOp57
 70
     1
102
RTVSPropertyOp58
 70
     1
102
RTVSPropertyOp59
 70
     1
102
RTVSPropertyOp60
 70
     1
102
RTVSPropertyOp61
 70
     1
102
RTVSPropertyOp62
 70
     1
  0
XRECORD
  5
11AE
102
{ACAD_REACTORS
330
11AD
102
}
330
11AD
100
AcDbXrecord
280
     1
102
RTVSPost2010Prop28
280
     0
102
RTVSPost2010PropOp28
 70
     1
102
RTVSPost2010Prop29
280
     1
102
RTVSPost2010PropOp29
 70
     1
102
RTVSPost2010Prop30
280
     1
102
RTVSPost2010PropOp30
 70
     1
102
RTVSPost2010Prop31
280
     0
102
RTVSPost2010PropOp31
 70
     1
102
RTVSPost2010Prop32
280
     0
102
RTVSPost2010PropOp32
 70
     1
102
RTVSPost2010Prop33
280
     0
102
RTVSPost2010PropOp33
 70
     1
102
RTVSPost2010Prop34
280
     0
102
RTVSPost2010PropOp34
 70
     1
102
RTVSPost2010Prop35
280
     0
102
RTVSPost2010PropOp35
 70
     1
102
RTVSPost2010Prop36
280
     0
102
RTVSPost2010PropOp36
 70
     1
102
RTVSPost2010Prop37
 90
       50
102
RTVSPost2010PropOp37
 70
     1
102
RTVSPost2010Prop38
140
0.0
102
RTVSPost2010PropOp38
 70
     1
102
RTVSPost2010Prop39
140
1.0
102
RTVSPost2010PropOp39
 70
     1
102
RTVSPost2010Prop40
 90
        0
102
RTVSPost2010PropOp40
 70
     1
102
RTVSPost2010Prop41ColorIndex
 90
       18
102
RTVSPost2010Prop41ColorRGB
 90
        0
102
RTVSPost2010PropOp41
 70
     1
102
RTVSPost2010Prop42
 90
       50
102
RTVSPost2010PropOp42
 70
     1
102
RTVSPost2010Prop43
 90
        3
102
RTVSPost2010PropOp43
 70
     1
102
RTVSPost2010Prop44ColorIndex
 90
        5
102
RTVSPost2010Prop44ColorRGB
 90
      255
102
RTVSPost2010PropOp44
 70
     1
102
RTVSPost2010Prop45
280
     0
102
RTVSPost2010PropOp45
 70
     1
102
RTVSPost2010Prop46
 90
       50
102
RTVSPost2010PropOp46
 70
     1
102
RTVSPost2010Prop47
 90
       50
102
RTVSPost2010PropOp47
 70
     1
102
RTVSPost2010Prop48
 90
       50
102
RTVSPost2010PropOp48
 70
     1
102
RTVSPost2010Prop49
280
     0
102
RTVSPost2010PropOp49
 70
     1
102
RTVSPost2010Prop50
 90
       50
102
RTVSPost2010PropOp50
 70
     1
102
RTVSPost2010Prop51ColorIndex
 90
      256
102
RTVSPost2010Prop51ColorRGB
 90
-16777216
102
RTVSPost2010PropOp51
 70
     0
102
RTVSPost2010Prop52
140
1.0
102
RTVSPost2010PropOp52
 70
     0
102
RTVSPost2010Prop53
 90
        2
102
RTVSPost2010PropOp53
 70
     1
102
RTVSPost2010Prop54
  1
strokes_ogs.tif
102
RTVSPost2010PropOp54
 70
     1
102
RTVSPost2010Prop55
280
     0
102
RTVSPost2010PropOp55
 70
     1
102
RTVSPost2010Prop56
140
1.0
102
RTVSPost2010PropOp56
 70
     1
102
RTVSPost2010Prop57
140
1.0
102
RTVSPost2010PropOp57
 70
     1
102
RTVSPropertyOp0
 70
     1
102
RTVSPropertyOp1
 70
     1
102
RTVSPropertyOp2
 70
     1
102
RTVSPropertyOp3
 70
     1
102
RTVSPropertyOp4
 70
     1
102
RTVSPropertyOp5
 70
     1
102
RTVSPropertyOp6
 70
     1
102
RTVSPropertyOp7
 70
     1
102
RTVSPropertyOp8
 70
     1
102
RTVSPropertyOp9
 70
     1
102
RTVSPropertyOp10
 70
     1
102
RTVSPropertyOp11
 70
     1
102
RTVSPropertyOp12
 70
     1
102
RTVSPropertyOp13
 70
     1
102
RTVSPropertyOp14
 70
     1
102
RTVSPropertyOp15
 70
     1
102
RTVSPropertyOp16
 70
     1
102
RTVSPropertyOp17
 70
     1
102
RTVSPropertyOp18
 70
     1
102
RTVSPropertyOp19
 70
     1
102
RTVSPropertyOp20
 70
     1
102
RTVSPropertyOp21
 70
     1
102
RTVSPropertyOp22
 70
     1
102
RTVSPropertyOp23
 70
     1
102
RTVSPropertyOp24
 70
     1
102
RTVSPropertyOp25
 70
     1
102
RTVSPropertyOp26
 70
     1
102
RTVSPropertyOp27
 70
     1
102
RTVSPropertyOp28
 70
     1
102
RTVSPropertyOp29
 70
     1
102
RTVSPropertyOp30
 70
     1
102
RTVSPropertyOp31
 70
     1
102
RTVSPropertyOp32
 70
     1
102
RTVSPropertyOp33
 70
     1
102
RTVSPropertyOp34
 70
     1
102
RTVSPropertyOp35
 70
     1
102
RTVSPropertyOp36
 70
     1
102
RTVSPropertyOp37
 70
     1
102
RTVSPropertyOp38
 70
     1
102
RTVSPropertyOp39
 70
     1
102
RTVSPropertyOp40
 70
     1
102
RTVSPropertyOp41
 70
     1
102
RTVSPropertyOp42
 70
     1
102
RTVSPropertyOp43
 70
     1
102
RTVSPropertyOp44
 70
     1
102
RTVSPropertyOp45
 70
     1
102
RTVSPropertyOp46
 70
     1
102
RTVSPropertyOp47
 70
     1
102
RTVSPropertyOp48
 70
     1
102
RTVSPropertyOp49
 70
     1
102
RTVSPropertyOp50
 70
     1
102
RTVSPropertyOp51
 70
     0
102
RTVSPropertyOp52
 70
     0
102
RTVSPropertyOp53
 70
     1
102
RTVSPropertyOp54
 70
     1
102
RTVSPropertyOp55
 70
     1
102
RTVSPropertyOp56
 70
     1
102
RTVSPropertyOp57
 70
     1
102
RTVSPropertyOp58
 70
     1
102
RTVSPropertyOp59
 70
     1
102
RTVSPropertyOp60
 70
     1
102
RTVSPropertyOp61
 70
     1
102
RTVSPropertyOp62
 70
     1
  0
XRECORD
  5
119C
102
{ACAD_REACTORS
330
119B
102
}
330
119B
100
AcDbXrecord
280
     1
102
RTVSPost2010Prop28
280
     0
102
RTVSPost2010PropOp28
 70
     1
102
RTVSPost2010Prop29
280
     1
102
RTVSPost2010PropOp29
 70
     1
102
RTVSPost2010Prop30
280
     1
102
RTVSPost2010PropOp30
 70
     1
102
RTVSPost2010Prop31
280
     0
102
RTVSPost2010PropOp31
 70
     1
102
RTVSPost2010Prop32
280
     0
102
RTVSPost2010PropOp32
 70
     1
102
RTVSPost2010Prop33
280
     0
102
RTVSPost2010PropOp33
 70
     1
102
RTVSPost2010Prop34
280
     0
102
RTVSPost2010PropOp34
 70
     1
102
RTVSPost2010Prop35
280
     0
102
RTVSPost2010PropOp35
 70
     1
102
RTVSPost2010Prop36
280
     0
102
RTVSPost2010PropOp36
 70
     1
102
RTVSPost2010Prop37
 90
       50
102
RTVSPost2010PropOp37
 70
     1
102
RTVSPost2010Prop38
140
0.0
102
RTVSPost2010PropOp38
 70
     1
102
RTVSPost2010Prop39
140
1.0
102
RTVSPost2010PropOp39
 70
     1
102
RTVSPost2010Prop40
 90
        0
102
RTVSPost2010PropOp40
 70
     1
102
RTVSPost2010Prop41ColorIndex
 90
       18
102
RTVSPost2010Prop41ColorRGB
 90
        0
102
RTVSPost2010PropOp41
 70
     1
102
RTVSPost2010Prop42
 90
       50
102
RTVSPost2010PropOp42
 70
     1
102
RTVSPost2010Prop43
 90
        3
102
RTVSPost2010PropOp43
 70
     1
102
RTVSPost2010Prop44ColorIndex
 90
        5
102
RTVSPost2010Prop44ColorRGB
 90
      255
102
RTVSPost2010PropOp44
 70
     1
102
RTVSPost2010Prop45
280
     0
102
RTVSPost2010PropOp45
 70
     1
102
RTVSPost2010Prop46
 90
       50
102
RTVSPost2010PropOp46
 70
     1
102
RTVSPost2010Prop47
 90
       50
102
RTVSPost2010PropOp47
 70
     1
102
RTVSPost2010Prop48
 90
       50
102
RTVSPost2010PropOp48
 70
     1
102
RTVSPost2010Prop49
280
     0
102
RTVSPost2010PropOp49
 70
     1
102
RTVSPost2010Prop50
 90
       50
102
RTVSPost2010PropOp50
 70
     1
102
RTVSPost2010Prop51ColorIndex
 90
      256
102
RTVSPost2010Prop51ColorRGB
 90
-16777216
102
RTVSPost2010PropOp51
 70
     0
102
RTVSPost2010Prop52
140
1.0
102
RTVSPost2010PropOp52
 70
     0
102
RTVSPost2010Prop53
 90
        2
102
RTVSPost2010PropOp53
 70
     1
102
RTVSPost2010Prop54
  1
strokes_ogs.tif
102
RTVSPost2010PropOp54
 70
     1
102
RTVSPost2010Prop55
280
     0
102
RTVSPost2010PropOp55
 70
     1
102
RTVSPost2010Prop56
140
1.0
102
RTVSPost2010PropOp56
 70
     1
102
RTVSPost2010Prop57
140
1.0
102
RTVSPost2010PropOp57
 70
     1
102
RTVSPropertyOp0
 70
     1
102
RTVSPropertyOp1
 70
     1
102
RTVSPropertyOp2
 70
     1
102
RTVSPropertyOp3
 70
     1
102
RTVSPropertyOp4
 70
     1
102
RTVSPropertyOp5
 70
     1
102
RTVSPropertyOp6
 70
     1
102
RTVSPropertyOp7
 70
     1
102
RTVSPropertyOp8
 70
     1
102
RTVSPropertyOp9
 70
     1
102
RTVSPropertyOp10
 70
     1
102
RTVSPropertyOp11
 70
     1
102
RTVSPropertyOp12
 70
     1
102
RTVSPropertyOp13
 70
     1
102
RTVSPropertyOp14
 70
     1
102
RTVSPropertyOp15
 70
     1
102
RTVSPropertyOp16
 70
     1
102
RTVSPropertyOp17
 70
     1
102
RTVSPropertyOp18
 70
     1
102
RTVSPropertyOp19
 70
     1
102
RTVSPropertyOp20
 70
     1
102
RTVSPropertyOp21
 70
     1
102
RTVSPropertyOp22
 70
     1
102
RTVSPropertyOp23
 70
     1
102
RTVSPropertyOp24
 70
     1
102
RTVSPropertyOp25
 70
     1
102
RTVSPropertyOp26
 70
     1
102
RTVSPropertyOp27
 70
     1
102
RTVSPropertyOp28
 70
     1
102
RTVSPropertyOp29
 70
     1
102
RTVSPropertyOp30
 70
     1
102
RTVSPropertyOp31
 70
     1
102
RTVSPropertyOp32
 70
     1
102
RTVSPropertyOp33
 70
     1
102
RTVSPropertyOp34
 70
     1
102
RTVSPropertyOp35
 70
     1
102
RTVSPropertyOp36
 70
     1
102
RTVSPropertyOp37
 70
     1
102
RTVSPropertyOp38
 70
     1
102
RTVSPropertyOp39
 70
     1
102
RTVSPropertyOp40
 70
     1
102
RTVSPropertyOp41
 70
     1
102
RTVSPropertyOp42
 70
     1
102
RTVSPropertyOp43
 70
     1
102
RTVSPropertyOp44
 70
     1
102
RTVSPropertyOp45
 70
     1
102
RTVSPropertyOp46
 70
     1
102
RTVSPropertyOp47
 70
     1
102
RTVSPropertyOp48
 70
     1
102
RTVSPropertyOp49
 70
     1
102
RTVSPropertyOp50
 70
     1
102
RTVSPropertyOp51
 70
     0
102
RTVSPropertyOp52
 70
     0
102
RTVSPropertyOp53
 70
     1
102
RTVSPropertyOp54
 70
     1
102
RTVSPropertyOp55
 70
     1
102
RTVSPropertyOp56
 70
     1
102
RTVSPropertyOp57
 70
     1
102
RTVSPropertyOp58
 70
     1
102
RTVSPropertyOp59
 70
     1
102
RTVSPropertyOp60
 70
     1
102
RTVSPropertyOp61
 70
     1
102
RTVSPropertyOp62
 70
     1
  0
XRECORD
  5
1190
102
{ACAD_REACTORS
330
118F
102
}
330
118F
100
AcDbXrecord
280
     1
102
RTVSPost2010Prop28
280
     0
102
RTVSPost2010PropOp28
 70
     1
102
RTVSPost2010Prop29
280
     1
102
RTVSPost2010PropOp29
 70
     1
102
RTVSPost2010Prop30
280
     1
102
RTVSPost2010PropOp30
 70
     1
102
RTVSPost2010Prop31
280
     0
102
RTVSPost2010PropOp31
 70
     1
102
RTVSPost2010Prop32
280
     0
102
RTVSPost2010PropOp32
 70
     1
102
RTVSPost2010Prop33
280
     0
102
RTVSPost2010PropOp33
 70
     1
102
RTVSPost2010Prop34
280
     0
102
RTVSPost2010PropOp34
 70
     1
102
RTVSPost2010Prop35
280
     0
102
RTVSPost2010PropOp35
 70
     1
102
RTVSPost2010Prop36
280
     0
102
RTVSPost2010PropOp36
 70
     1
102
RTVSPost2010Prop37
 90
       50
102
RTVSPost2010PropOp37
 70
     1
102
RTVSPost2010Prop38
140
0.0
102
RTVSPost2010PropOp38
 70
     1
102
RTVSPost2010Prop39
140
1.0
102
RTVSPost2010PropOp39
 70
     1
102
RTVSPost2010Prop40
 90
        0
102
RTVSPost2010PropOp40
 70
     1
102
RTVSPost2010Prop41ColorIndex
 90
       18
102
RTVSPost2010Prop41ColorRGB
 90
        0
102
RTVSPost2010PropOp41
 70
     1
102
RTVSPost2010Prop42
 90
       50
102
RTVSPost2010PropOp42
 70
     1
102
RTVSPost2010Prop43
 90
        3
102
RTVSPost2010PropOp43
 70
     1
102
RTVSPost2010Prop44ColorIndex
 90
        5
102
RTVSPost2010Prop44ColorRGB
 90
      255
102
RTVSPost2010PropOp44
 70
     1
102
RTVSPost2010Prop45
280
     0
102
RTVSPost2010PropOp45
 70
     1
102
RTVSPost2010Prop46
 90
       50
102
RTVSPost2010PropOp46
 70
     1
102
RTVSPost2010Prop47
 90
       50
102
RTVSPost2010PropOp47
 70
     1
102
RTVSPost2010Prop48
 90
       50
102
RTVSPost2010PropOp48
 70
     1
102
RTVSPost2010Prop49
280
     0
102
RTVSPost2010PropOp49
 70
     1
102
RTVSPost2010Prop50
 90
       50
102
RTVSPost2010PropOp50
 70
     1
102
RTVSPost2010Prop51ColorIndex
 90
      256
102
RTVSPost2010Prop51ColorRGB
 90
-16777216
102
RTVSPost2010PropOp51
 70
     0
102
RTVSPost2010Prop52
140
1.0
102
RTVSPost2010PropOp52
 70
     0
102
RTVSPost2010Prop53
 90
        2
102
RTVSPost2010PropOp53
 70
     1
102
RTVSPost2010Prop54
  1
strokes_ogs.tif
102
RTVSPost2010PropOp54
 70
     1
102
RTVSPost2010Prop55
280
     0
102
RTVSPost2010PropOp55
 70
     1
102
RTVSPost2010Prop56
140
1.0
102
RTVSPost2010PropOp56
 70
     1
102
RTVSPost2010Prop57
140
1.0
102
RTVSPost2010PropOp57
 70
     1
102
RTVSPropertyOp0
 70
     1
102
RTVSPropertyOp1
 70
     1
102
RTVSPropertyOp2
 70
     1
102
RTVSPropertyOp3
 70
     1
102
RTVSPropertyOp4
 70
     1
102
RTVSPropertyOp5
 70
     1
102
RTVSPropertyOp6
 70
     1
102
RTVSPropertyOp7
 70
     1
102
RTVSPropertyOp8
 70
     1
102
RTVSPropertyOp9
 70
     1
102
RTVSPropertyOp10
 70
     1
102
RTVSPropertyOp11
 70
     1
102
RTVSPropertyOp12
 70
     1
102
RTVSPropertyOp13
 70
     1
102
RTVSPropertyOp14
 70
     1
102
RTVSPropertyOp15
 70
     1
102
RTVSPropertyOp16
 70
     1
102
RTVSPropertyOp17
 70
     1
102
RTVSPropertyOp18
 70
     1
102
RTVSPropertyOp19
 70
     1
102
RTVSPropertyOp20
 70
     1
102
RTVSPropertyOp21
 70
     1
102
RTVSPropertyOp22
 70
     1
102
RTVSPropertyOp23
 70
     1
102
RTVSPropertyOp24
 70
     1
102
RTVSPropertyOp25
 70
     1
102
RTVSPropertyOp26
 70
     1
102
RTVSPropertyOp27
 70
     1
102
RTVSPropertyOp28
 70
     1
102
RTVSPropertyOp29
 70
     1
102
RTVSPropertyOp30
 70
     1
102
RTVSPropertyOp31
 70
     1
102
RTVSPropertyOp32
 70
     1
102
RTVSPropertyOp33
 70
     1
102
RTVSPropertyOp34
 70
     1
102
RTVSPropertyOp35
 70
     1
102
RTVSPropertyOp36
 70
     1
102
RTVSPropertyOp37
 70
     1
102
RTVSPropertyOp38
 70
     1
102
RTVSPropertyOp39
 70
     1
102
RTVSPropertyOp40
 70
     1
102
RTVSPropertyOp41
 70
     1
102
RTVSPropertyOp42
 70
     1
102
RTVSPropertyOp43
 70
     1
102
RTVSPropertyOp44
 70
     1
102
RTVSPropertyOp45
 70
     1
102
RTVSPropertyOp46
 70
     1
102
RTVSPropertyOp47
 70
     1
102
RTVSPropertyOp48
 70
     1
102
RTVSPropertyOp49
 70
     1
102
RTVSPropertyOp50
 70
     1
102
RTVSPropertyOp51
 70
     0
102
RTVSPropertyOp52
 70
     0
102
RTVSPropertyOp53
 70
     1
102
RTVSPropertyOp54
 70
     1
102
RTVSPropertyOp55
 70
     1
102
RTVSPropertyOp56
 70
     1
102
RTVSPropertyOp57
 70
     1
102
RTVSPropertyOp58
 70
     1
102
RTVSPropertyOp59
 70
     1
102
RTVSPropertyOp60
 70
     1
102
RTVSPropertyOp61
 70
     1
102
RTVSPropertyOp62
 70
     1
  0
XRECORD
  5
11B0
102
{ACAD_REACTORS
330
11AF
102
}
330
11AF
100
AcDbXrecord
280
     1
102
RTVSPost2010Prop28
280
     0
102
RTVSPost2010PropOp28
 70
     1
102
RTVSPost2010Prop29
280
     1
102
RTVSPost2010PropOp29
 70
     1
102
RTVSPost2010Prop30
280
     1
102
RTVSPost2010PropOp30
 70
     1
102
RTVSPost2010Prop31
280
     0
102
RTVSPost2010PropOp31
 70
     1
102
RTVSPost2010Prop32
280
     0
102
RTVSPost2010PropOp32
 70
     1
102
RTVSPost2010Prop33
280
     0
102
RTVSPost2010PropOp33
 70
     1
102
RTVSPost2010Prop34
280
     0
102
RTVSPost2010PropOp34
 70
     1
102
RTVSPost2010Prop35
280
     0
102
RTVSPost2010PropOp35
 70
     1
102
RTVSPost2010Prop36
280
     0
102
RTVSPost2010PropOp36
 70
     1
102
RTVSPost2010Prop37
 90
       50
102
RTVSPost2010PropOp37
 70
     1
102
RTVSPost2010Prop38
140
0.0
102
RTVSPost2010PropOp38
 70
     1
102
RTVSPost2010Prop39
140
1.0
102
RTVSPost2010PropOp39
 70
     1
102
RTVSPost2010Prop40
 90
        0
102
RTVSPost2010PropOp40
 70
     1
102
RTVSPost2010Prop41ColorIndex
 90
       18
102
RTVSPost2010Prop41ColorRGB
 90
        0
102
RTVSPost2010PropOp41
 70
     1
102
RTVSPost2010Prop42
 90
       50
102
RTVSPost2010PropOp42
 70
     1
102
RTVSPost2010Prop43
 90
        3
102
RTVSPost2010PropOp43
 70
     1
102
RTVSPost2010Prop44ColorIndex
 90
        5
102
RTVSPost2010Prop44ColorRGB
 90
      255
102
RTVSPost2010PropOp44
 70
     1
102
RTVSPost2010Prop45
280
     0
102
RTVSPost2010PropOp45
 70
     1
102
RTVSPost2010Prop46
 90
       50
102
RTVSPost2010PropOp46
 70
     1
102
RTVSPost2010Prop47
 90
       50
102
RTVSPost2010PropOp47
 70
     1
102
RTVSPost2010Prop48
 90
       50
102
RTVSPost2010PropOp48
 70
     1
102
RTVSPost2010Prop49
280
     0
102
RTVSPost2010PropOp49
 70
     1
102
RTVSPost2010Prop50
 90
       50
102
RTVSPost2010PropOp50
 70
     1
102
RTVSPost2010Prop51ColorIndex
 90
      256
102
RTVSPost2010Prop51ColorRGB
 90
-16777216
102
RTVSPost2010PropOp51
 70
     0
102
RTVSPost2010Prop52
140
1.0
102
RTVSPost2010PropOp52
 70
     0
102
RTVSPost2010Prop53
 90
        2
102
RTVSPost2010PropOp53
 70
     1
102
RTVSPost2010Prop54
  1
strokes_ogs.tif
102
RTVSPost2010PropOp54
 70
     1
102
RTVSPost2010Prop55
280
     0
102
RTVSPost2010PropOp55
 70
     1
102
RTVSPost2010Prop56
140
1.0
102
RTVSPost2010PropOp56
 70
     1
102
RTVSPost2010Prop57
140
1.0
102
RTVSPost2010PropOp57
 70
     1
102
RTVSPropertyOp0
 70
     1
102
RTVSPropertyOp1
 70
     1
102
RTVSPropertyOp2
 70
     1
102
RTVSPropertyOp3
 70
     1
102
RTVSPropertyOp4
 70
     1
102
RTVSPropertyOp5
 70
     1
102
RTVSPropertyOp6
 70
     1
102
RTVSPropertyOp7
 70
     1
102
RTVSPropertyOp8
 70
     1
102
RTVSPropertyOp9
 70
     1
102
RTVSPropertyOp10
 70
     1
102
RTVSPropertyOp11
 70
     1
102
RTVSPropertyOp12
 70
     1
102
RTVSPropertyOp13
 70
     1
102
RTVSPropertyOp14
 70
     1
102
RTVSPropertyOp15
 70
     1
102
RTVSPropertyOp16
 70
     1
102
RTVSPropertyOp17
 70
     1
102
RTVSPropertyOp18
 70
     1
102
RTVSPropertyOp19
 70
     1
102
RTVSPropertyOp20
 70
     1
102
RTVSPropertyOp21
 70
     1
102
RTVSPropertyOp22
 70
     1
102
RTVSPropertyOp23
 70
     1
102
RTVSPropertyOp24
 70
     1
102
RTVSPropertyOp25
 70
     1
102
RTVSPropertyOp26
 70
     1
102
RTVSPropertyOp27
 70
     1
102
RTVSPropertyOp28
 70
     1
102
RTVSPropertyOp29
 70
     1
102
RTVSPropertyOp30
 70
     1
102
RTVSPropertyOp31
 70
     1
102
RTVSPropertyOp32
 70
     1
102
RTVSPropertyOp33
 70
     1
102
RTVSPropertyOp34
 70
     1
102
RTVSPropertyOp35
 70
     1
102
RTVSPropertyOp36
 70
     1
102
RTVSPropertyOp37
 70
     1
102
RTVSPropertyOp38
 70
     1
102
RTVSPropertyOp39
 70
     1
102
RTVSPropertyOp40
 70
     1
102
RTVSPropertyOp41
 70
     1
102
RTVSPropertyOp42
 70
     1
102
RTVSPropertyOp43
 70
     1
102
RTVSPropertyOp44
 70
     1
102
RTVSPropertyOp45
 70
     1
102
RTVSPropertyOp46
 70
     1
102
RTVSPropertyOp47
 70
     1
102
RTVSPropertyOp48
 70
     1
102
RTVSPropertyOp49
 70
     1
102
RTVSPropertyOp50
 70
     1
102
RTVSPropertyOp51
 70
     0
102
RTVSPropertyOp52
 70
     0
102
RTVSPropertyOp53
 70
     1
102
RTVSPropertyOp54
 70
     1
102
RTVSPropertyOp55
 70
     1
102
RTVSPropertyOp56
 70
     1
102
RTVSPropertyOp57
 70
     1
102
RTVSPropertyOp58
 70
     1
102
RTVSPropertyOp59
 70
     1
102
RTVSPropertyOp60
 70
     1
102
RTVSPropertyOp61
 70
     1
102
RTVSPropertyOp62
 70
     1
  0
ENDSEC
  0
EOF
