  0
SECTION
  2
HEADER
  9
$ACADVER
  1
AC1015
  9
$ACADMAINTVER
 70
    18
  9
$DWGCODEPAGE
  3
ANSI_1252
  9
$INSBASE
 10
0.0
 20
0.0
 30
0.0
  9
$EXTMIN
 10
-160.5184928613231
 20
-552.1029510010301
 30
-0.0015258207003583
  9
$EXTMAX
 10
170.9069831097813
 20
239.7490088035691
 30
0.0000000349246037
  9
$LIMMIN
 10
0.0
 20
0.0
  9
$LIMMAX
 10
420.0
 20
297.0
  9
$ORTHOMODE
 70
     0
  9
$REGENMODE
 70
     1
  9
$FILLMODE
 70
     1
  9
$QTEXTMODE
 70
     0
  9
$MIRRTEXT
 70
     0
  9
$LTSCALE
 40
1.0
  9
$ATTMODE
 70
     1
  9
$TEXTSIZE
 40
2.5
  9
$TRACEWID
 40
1.0
  9
$TEXTSTYLE
  7
Standard
  9
$CLAYER
  8
0
  9
$CELTYPE
  6
ByLayer
  9
$CECOLOR
 62
   256
  9
$CELTSCALE
 40
1.0
  9
$DISPSILH
 70
     0
  9
$DIMSCALE
 40
1.0
  9
$DIMASZ
 40
2.5
  9
$DIMEXO
 40
0.625
  9
$DIMDLI
 40
3.75
  9
$DIMRND
 40
0.0
  9
$DIMDLE
 40
0.0
  9
$DIMEXE
 40
1.25
  9
$DIMTP
 40
0.0
  9
$DIMTM
 40
0.0
  9
$DIMTXT
 40
2.5
  9
$DIMCEN
 40
2.5
  9
$DIMTSZ
 40
0.0
  9
$DIMTOL
 70
     0
  9
$DIMLIM
 70
     0
  9
$DIMTIH
 70
     0
  9
$DIMTOH
 70
     0
  9
$DIMSE1
 70
     0
  9
$DIMSE2
 70
     0
  9
$DIMTAD
 70
     1
  9
$DIMZIN
 70
     8
  9
$DIMBLK
  1

  9
$DIMASO
 70
     1
  9
$DIMSHO
 70
     1
  9
$DIMPOST
  1

  9
$DIMAPOST
  1

  9
$DIMALT
 70
     0
  9
$DIMALTD
 70
     3
  9
$DIMALTF
 40
0.03937007874016
  9
$DIMLFAC
 40
1.0
  9
$DIMTOFL
 70
     1
  9
$DIMTVP
 40
0.0
  9
$DIMTIX
 70
     0
  9
$DIMSOXD
 70
     0
  9
$DIMSAH
 70
     0
  9
$DIMBLK1
  1

  9
$DIMBLK2
  1

  9
$DIMSTYLE
  2
ISO-25
  9
$DIMCLRD
 70
     0
  9
$DIMCLRE
 70
     0
  9
$DIMCLRT
 70
     0
  9
$DIMTFAC
 40
1.0
  9
$DIMGAP
 40
0.625
  9
$DIMJUST
 70
     0
  9
$DIMSD1
 70
     0
  9
$DIMSD2
 70
     0
  9
$DIMTOLJ
 70
     0
  9
$DIMTZIN
 70
     8
  9
$DIMALTZ
 70
     0
  9
$DIMALTTZ
 70
     0
  9
$DIMUPT
 70
     0
  9
$DIMDEC
 70
     2
  9
$DIMTDEC
 70
     2
  9
$DIMALTU
 70
     2
  9
$DIMALTTD
 70
     3
  9
$DIMTXSTY
  7
Standard
  9
$DIMAUNIT
 70
     0
  9
$DIMADEC
 70
     0
  9
$DIMALTRND
 40
0.0
  9
$DIMAZIN
 70
     0
  9
$DIMDSEP
 70
    44
  9
$DIMATFIT
 70
     3
  9
$DIMFRAC
 70
     0
  9
$DIMLDRBLK
  1

  9
$DIMLUNIT
 70
     2
  9
$DIMLWD
 70
    -2
  9
$DIMLWE
 70
    -2
  9
$DIMTMOVE
 70
     0
  9
$LUNITS
 70
     2
  9
$LUPREC
 70
     4
  9
$SKETCHINC
 40
1.0
  9
$FILLETRAD
 40
0.0
  9
$AUNITS
 70
     0
  9
$AUPREC
 70
     0
  9
$MENU
  1
.
  9
$ELEVATION
 40
0.0
  9
$PELEVATION
 40
0.0
  9
$THICKNESS
 40
0.0
  9
$LIMCHECK
 70
     0
  9
$CHAMFERA
 40
0.0
  9
$CHAMFERB
 40
0.0
  9
$CHAMFERC
 40
0.0
  9
$CHAMFERD
 40
0.0
  9
$SKPOLY
 70
     0
  9
$TDCREATE
 40
2460286.622500000
  9
$TDUCREATE
 40
2460286.330833334
  9
$TDUPDATE
 40
2460286.637870371
  9
$TDUUPDATE
 40
2460286.346203704
  9
$TDINDWG
 40
0.0048032407
  9
$TDUSRTIMER
 40
0.0048032407
  9
$USRTIMER
 70
     1
  9
$ANGBASE
 50
0.0
  9
$ANGDIR
 70
     0
  9
$PDMODE
 70
     0
  9
$PDSIZE
 40
0.0
  9
$PLINEWID
 40
0.0
  9
$SPLFRAME
 70
     0
  9
$SPLINETYPE
 70
     6
  9
$SPLINESEGS
 70
     8
  9
$HANDSEED
  5
BCC2
  9
$SURFTAB1
 70
     6
  9
$SURFTAB2
 70
     6
  9
$SURFTYPE
 70
     6
  9
$SURFU
 70
     6
  9
$SURFV
 70
     6
  9
$UCSBASE
  2

  9
$UCSNAME
  2

  9
$UCSORG
 10
0.0
 20
0.0
 30
0.0
  9
$UCSXDIR
 10
1.0
 20
0.0
 30
0.0
  9
$UCSYDIR
 10
0.0
 20
1.0
 30
0.0
  9
$UCSORTHOREF
  2

  9
$UCSORTHOVIEW
 70
     0
  9
$UCSORGTOP
 10
0.0
 20
0.0
 30
0.0
  9
$UCSORGBOTTOM
 10
0.0
 20
0.0
 30
0.0
  9
$UCSORGLEFT
 10
0.0
 20
0.0
 30
0.0
  9
$UCSORGRIGHT
 10
0.0
 20
0.0
 30
0.0
  9
$UCSORGFRONT
 10
0.0
 20
0.0
 30
0.0
  9
$UCSORGBACK
 10
0.0
 20
0.0
 30
0.0
  9
$PUCSBASE
  2

  9
$PUCSNAME
  2

  9
$PUCSORG
 10
0.0
 20
0.0
 30
0.0
  9
$PUCSXDIR
 10
1.0
 20
0.0
 30
0.0
  9
$PUCSYDIR
 10
0.0
 20
1.0
 30
0.0
  9
$PUCSORTHOREF
  2

  9
$PUCSORTHOVIEW
 70
     0
  9
$PUCSORGTOP
 10
0.0
 20
0.0
 30
0.0
  9
$PUCSORGBOTTOM
 10
0.0
 20
0.0
 30
0.0
  9
$PUCSORGLEFT
 10
0.0
 20
0.0
 30
0.0
  9
$PUCSORGRIGHT
 10
0.0
 20
0.0
 30
0.0
  9
$PUCSORGFRONT
 10
0.0
 20
0.0
 30
0.0
  9
$PUCSORGBACK
 10
0.0
 20
0.0
 30
0.0
  9
$USERI1
 70
     0
  9
$USERI2
 70
     0
  9
$USERI3
 70
     0
  9
$USERI4
 70
     0
  9
$USERI5
 70
     0
  9
$USERR1
 40
0.0
  9
$USERR2
 40
0.0
  9
$USERR3
 40
0.0
  9
$USERR4
 40
0.0
  9
$USERR5
 40
0.0
  9
$WORLDVIEW
 70
     1
  9
$SHADEDGE
 70
     3
  9
$SHADEDIF
 70
    70
  9
$TILEMODE
 70
     1
  9
$MAXACTVP
 70
    48
  9
$PINSBASE
 10
0.0
 20
0.0
 30
0.0
  9
$PLIMCHECK
 70
     0
  9
$PEXTMIN
 10
0.0
 20
0.0
 30
0.0
  9
$PEXTMAX
 10
0.0
 20
0.0
 30
0.0
  9
$PLIMMIN
 10
0.0
 20
0.0
  9
$PLIMMAX
 10
12.0
 20
9.0
  9
$UNITMODE
 70
     0
  9
$VISRETAIN
 70
     1
  9
$PLINEGEN
 70
     0
  9
$PSLTSCALE
 70
     1
  9
$TREEDEPTH
 70
  3020
  9
$CMLSTYLE
  2
Standard
  9
$CMLJUST
 70
     0
  9
$CMLSCALE
 40
20.0
  9
$PROXYGRAPHICS
 70
     1
  9
$MEASUREMENT
 70
     1
  9
$CELWEIGHT
370
    -1
  9
$ENDCAPS
280
     0
  9
$JOINSTYLE
280
     0
  9
$LWDISPLAY
290
     0
  9
$INSUNITS
 70
     4
  9
$HYPERLINKBASE
  1

  9
$STYLESHEET
  1

  9
$XEDIT
290
     1
  9
$CEPSNTYPE
380
     0
  9
$PSTYLEMODE
290
     1
  9
$FINGERPRINTGUID
  2
{F076C30E-3F10-754B-AD36-B589FE558AAC}
  9
$VERSIONGUID
  2
{6B7DCA3F-EDE8-944B-9AD7-195202FE0773}
  9
$EXTNAMES
290
     1
  9
$PSVPSCALE
 40
0.0
  9
$OLESTARTUP
290
     0
  0
ENDSEC
  0
SECTION
  2
CLASSES
  0
CLASS
  1
ACDBDICTIONARYWDFLT
  2
AcDbDictionaryWithDefault
  3
ObjectDBX Classes
 90
        0
280
     0
281
     0
  0
CLASS
  1
ACDBPLACEHOLDER
  2
AcDbPlaceHolder
  3
ObjectDBX Classes
 90
        0
280
     0
281
     0
  0
CLASS
  1
LAYOUT
  2
AcDbLayout
  3
ObjectDBX Classes
 90
        0
280
     0
281
     0
  0
CLASS
  1
DICTIONARYVAR
  2
AcDbDictionaryVar
  3
ObjectDBX Classes
 90
        0
280
     0
281
     0
  0
CLASS
  1
TABLESTYLE
  2
AcDbTableStyle
  3
ObjectDBX Classes
 90
     4095
280
     0
281
     0
  0
CLASS
  1
MATERIAL
  2
AcDbMaterial
  3
ObjectDBX Classes
 90
     1153
280
     0
281
     0
  0
CLASS
  1
VISUALSTYLE
  2
AcDbVisualStyle
  3
ObjectDBX Classes
 90
     4095
280
     0
281
     0
  0
CLASS
  1
SCALE
  2
AcDbScale
  3
ObjectDBX Classes
 90
     1153
280
     0
281
     0
  0
CLASS
  1
MLEADERSTYLE
  2
AcDbMLeaderStyle
  3
ACDB_MLEADERSTYLE_CLASS
 90
     4095
280
     0
281
     0
  0
CLASS
  1
CELLSTYLEMAP
  2
AcDbCellStyleMap
  3
ObjectDBX Classes
 90
     1152
280
     0
281
     0
  0
CLASS
  1
EXACXREFPANELOBJECT
  2
ExAcXREFPanelObject
  3
EXAC_ESW
 90
    33793
280
     0
281
     0
  0
CLASS
  1
NPOCOLLECTION
  2
AcDbImpNonPersistentObjectsCollection
  3
ObjectDBX Classes
 90
    33921
280
     0
281
     0
  0
CLASS
  1
LAYER_INDEX
  2
AcDbLayerIndex
  3
ObjectDBX Classes
 90
    32768
280
     0
281
     0
  0
CLASS
  1
SPATIAL_INDEX
  2
AcDbSpatialIndex
  3
ObjectDBX Classes
 90
    32768
280
     0
281
     0
  0
CLASS
  1
IDBUFFER
  2
AcDbIdBuffer
  3
ObjectDBX Classes
 90
    32768
280
     0
281
     0
  0
CLASS
  1
ACDBSECTIONVIEWSTYLE
  2
AcDbSectionViewStyle
  3
ObjectDBX Classes
 90
     1025
280
     0
281
     0
  0
CLASS
  1
ACDBDETAILVIEWSTYLE
  2
AcDbDetailViewStyle
  3
ObjectDBX Classes
 90
     1025
280
     0
281
     0
  0
CLASS
  1
XRECORD
  2
AcDbXrecord
  3
ObjectDBX Classes
 90
        0
280
     0
281
     0
  0
ENDSEC
  0
SECTION
  2
TABLES
  0
TABLE
  2
VPORT
  5
8
102
{ACAD_XDICTIONARY
360
BBD0
102
}
330
0
100
AcDbSymbolTable
 70
     1
  0
VPORT
  5
EA
330
8
100
AcDbSymbolTableRecord
100
AcDbViewportTableRecord
  2
*Active
 70
     0
 10
0.0
 20
0.0
 11
1.0
 21
1.0
 12
5.194245124229098
 22
-156.1769710987305
 13
0.0
 23
0.0
 14
10.0
 24
10.0
 15
10.0
 25
10.0
 16
0.0
 26
0.0
 36
1.0
 17
0.0
 27
0.0
 37
0.0
 40
842.062799001837
 41
0.9846153846153846
 42
50.0
 43
0.0
 44
0.0
 50
0.0
 51
0.0
 71
     0
 72
  1000
 73
     1
 74
     3
 75
     0
 76
     1
 77
     0
 78
     0
281
     0
 65
     1
110
0.0
120
0.0
130
0.0
111
1.0
121
0.0
131
0.0
112
0.0
122
1.0
132
0.0
 79
     0
146
0.0
1001
ACAD_NAV_VCDISPLAY
1070
     3
  0
ENDTAB
  0
TABLE
  2
LTYPE
  5
5
330
0
100
AcDbSymbolTable
 70
     1
  0
LTYPE
  5
14
330
5
100
AcDbSymbolTableRecord
100
AcDbLinetypeTableRecord
  2
ByBlock
 70
     0
  3

 72
    65
 73
     0
 40
0.0
  0
LTYPE
  5
15
330
5
100
AcDbSymbolTableRecord
100
AcDbLinetypeTableRecord
  2
ByLayer
 70
     0
  3

 72
    65
 73
     0
 40
0.0
  0
LTYPE
  5
16
330
5
100
AcDbSymbolTableRecord
100
AcDbLinetypeTableRecord
  2
Continuous
 70
     0
  3
Solid line
 72
    65
 73
     0
 40
0.0
  0
ENDTAB
  0
TABLE
  2
LAYER
  5
2
102
{ACAD_XDICTIONARY
360
1FF
102
}
330
0
100
AcDbSymbolTable
 70
     1
  0
LAYER
  5
10
102
{ACAD_XDICTIONARY
360
13C
102
}
330
2
100
AcDbSymbolTableRecord
100
AcDbLayerTableRecord
  2
0
 70
     0
 62
     7
  6
Continuous
370
    -3
390
F
  0
ENDTAB
  0
TABLE
  2
STYLE
  5
3
330
0
100
AcDbSymbolTable
 70
     1
  0
STYLE
  5
11
330
3
100
AcDbSymbolTableRecord
100
AcDbTextStyleTableRecord
  2
Standard
 70
     0
 40
0.0
 41
1.0
 50
0.0
 71
     0
 42
2.5
  3
arial.ttf
  4

1001
ACAD
1000
Arial
1071
       34
  0
ENDTAB
  0
TABLE
  2
VIEW
  5
6
330
0
100
AcDbSymbolTable
 70
     0
  0
ENDTAB
  0
TABLE
  2
UCS
  5
7
330
0
100
AcDbSymbolTable
 70
     0
  0
ENDTAB
  0
TABLE
  2
APPID
  5
9
330
0
100
AcDbSymbolTable
 70
     8
  0
APPID
  5
12
330
9
100
AcDbSymbolTableRecord
100
AcDbRegAppTableRecord
  2
ACAD
 70
     0
  0
APPID
  5
9E
330
9
100
AcDbSymbolTableRecord
100
AcDbRegAppTableRecord
  2
ACAD_PSEXT
 70
     0
  0
APPID
  5
133
330
9
100
AcDbSymbolTableRecord
100
AcDbRegAppTableRecord
  2
AcadAnnoPO
 70
     0
  0
APPID
  5
134
330
9
100
AcDbSymbolTableRecord
100
AcDbRegAppTableRecord
  2
AcadAnnotative
 70
     0
  0
APPID
  5
135
330
9
100
AcDbSymbolTableRecord
100
AcDbRegAppTableRecord
  2
ACAD_DSTYLE_DIMJAG
 70
     0
  0
APPID
  5
136
330
9
100
AcDbSymbolTableRecord
100
AcDbRegAppTableRecord
  2
ACAD_DSTYLE_DIMTALN
 70
     0
  0
APPID
  5
165
330
9
100
AcDbSymbolTableRecord
100
AcDbRegAppTableRecord
  2
ACAD_MLEADERVER
 70
     0
  0
APPID
  5
217
330
9
100
AcDbSymbolTableRecord
100
AcDbRegAppTableRecord
  2
ACAD_NAV_VCDISPLAY
 70
     0
  0
ENDTAB
  0
TABLE
  2
DIMSTYLE
  5
A
330
0
100
AcDbSymbolTable
 70
     1
100
AcDbDimStyleTable
 71
     0
  0
DIMSTYLE
105
27
330
A
100
AcDbSymbolTableRecord
100
AcDbDimStyleTableRecord
  2
ISO-25
 70
     0
 41
2.5
 42
0.625
 43
3.75
 44
1.25
 73
     0
 74
     0
 77
     1
 78
     8
140
2.5
141
2.5
143
0.03937007874016
147
0.625
171
     3
172
     1
271
     2
272
     2
274
     3
278
    44
283
     0
284
     8
340
11
  0
ENDTAB
  0
TABLE
  2
BLOCK_RECORD
  5
1
330
0
100
AcDbSymbolTable
 70
     7
  0
BLOCK_RECORD
  5
1F
102
{ACAD_XDICTIONARY
360
1CE
102
}
330
1
100
AcDbSymbolTableRecord
100
AcDbBlockTableRecord
  2
*Model_Space
340
22
  0
BLOCK_RECORD
  5
D2
102
{ACAD_XDICTIONARY
360
BB83
102
}
330
1
100
AcDbSymbolTableRecord
100
AcDbBlockTableRecord
  2
*Paper_Space
340
D3
  0
BLOCK_RECORD
  5
D6
102
{ACAD_XDICTIONARY
360
BB85
102
}
330
1
100
AcDbSymbolTableRecord
100
AcDbBlockTableRecord
  2
*Paper_Space0
340
D7
  0
BLOCK_RECORD
  5
B9AD
330
1
100
AcDbSymbolTableRecord
100
AcDbBlockTableRecord
  2
PBWS45-Front
340
0
102
{BLKREFS
331
BB79
102
}
  0
BLOCK_RECORD
  5
B9EC
330
1
100
AcDbSymbolTableRecord
100
AcDbBlockTableRecord
  2
PBWS45-Left
340
0
102
{BLKREFS
331
BB7A
102
}
  0
BLOCK_RECORD
  5
BA26
330
1
100
AcDbSymbolTableRecord
100
AcDbBlockTableRecord
  2
PBWS45-Right
340
0
102
{BLKREFS
331
BB7B
102
}
  0
BLOCK_RECORD
  5
BA60
330
1
100
AcDbSymbolTableRecord
100
AcDbBlockTableRecord
  2
PBWS45-Top
340
0
102
{BLKREFS
331
BB7C
102
}
  0
BLOCK_RECORD
  5
BAA1
330
1
100
AcDbSymbolTableRecord
100
AcDbBlockTableRecord
  2
PBWS45-Bottom
340
0
102
{BLKREFS
331
BB7D
102
}
  0
BLOCK_RECORD
  5
BACC
330
1
100
AcDbSymbolTableRecord
100
AcDbBlockTableRecord
  2
PBWS45-ISO
340
0
102
{BLKREFS
331
BB7E
102
}
  0
ENDTAB
  0
ENDSEC
  0
SECTION
  2
BLOCKS
  0
BLOCK
  5
20
330
1F
100
AcDbEntity
  8
0
100
AcDbBlockBegin
  2
*Model_Space
 70
     0
 10
0.0
 20
0.0
 30
0.0
  3
*Model_Space
  1

  0
ENDBLK
  5
21
330
1F
100
AcDbEntity
  8
0
100
AcDbBlockEnd
  0
BLOCK
  5
D4
330
D2
100
AcDbEntity
 67
     1
  8
0
100
AcDbBlockBegin
  2
*Paper_Space
 70
     0
 10
0.0
 20
0.0
 30
0.0
  3
*Paper_Space
  1

  0
ENDBLK
  5
D5
330
D2
100
AcDbEntity
 67
     1
  8
0
100
AcDbBlockEnd
  0
BLOCK
  5
D8
330
D6
100
AcDbEntity
 67
     1
  8
0
100
AcDbBlockBegin
  2
*Paper_Space0
 70
     0
 10
0.0
 20
0.0
 30
0.0
  3
*Paper_Space0
  1

  0
ENDBLK
  5
D9
330
D6
100
AcDbEntity
 67
     1
  8
0
100
AcDbBlockEnd
  0
BLOCK
  5
B9AE
330
B9AD
100
AcDbEntity
  8
0
100
AcDbBlockBegin
  2
PBWS45-Front
 70
     0
 10
0.0
 20
0.0
 30
0.0
  3
PBWS45-Front
  1

  0
LINE
  5
B9B0
330
B9AD
100
AcDbEntity
  8
0
100
AcDbLine
 10
18.3065165062984
 20
0.0
 30
0.0
 11
18.30699894281652
 21
0.0
 31
0.0
  0
LINE
  5
B9B1
330
B9AD
100
AcDbEntity
  8
0
100
AcDbLine
 10
3.276516506298366
 20
-3.000000000000015
 30
0.0
 11
3.276516506298359
 21
-5.999999999999956
 31
0.0
  0
LINE
  5
B9B2
330
B9AD
100
AcDbEntity
  8
0
100
AcDbLine
 10
18.30699894281664
 20
-5.999999999999942
 30
0.0
 11
18.30699894281652
 21
0.0
 31
0.0
  0
LINE
  5
B9B3
330
B9AD
100
AcDbEntity
  8
0
100
AcDbLine
 10
-8.723483493701573
 20
-197.9370000000001
 30
0.0
 11
-8.723483493701634
 21
-50.0
 31
0.0
  0
LINE
  5
B9B4
330
B9AD
100
AcDbEntity
  8
0
100
AcDbLine
 10
3.276516506298462
 20
-197.9370000000001
 30
0.0
 11
-8.723483493701575
 21
-197.9370000000001
 31
0.0
  0
LINE
  5
B9B5
330
B9AD
100
AcDbEntity
  8
0
100
AcDbLine
 10
-3.541502978362137
 20
-61.43933982822016
 30
0.0
 11
1.408244489943685
 21
-66.389087296526
 31
0.0
  0
ARC
  5
B9B6
330
B9AD
100
AcDbEntity
  8
0
100
AcDbCircle
 10
0.3475843181638771
 20
-67.4497474683058
 30
0.0
 40
1.499999999999995
100
AcDbArc
 50
225.0000000000006
 51
45.00000000000008
  0
LINE
  5
B9B7
330
B9AD
100
AcDbEntity
  8
0
100
AcDbLine
 10
-0.713075853615933
 20
-68.51040764008563
 30
0.0
 11
-5.662823321921786
 21
-63.5606601717798
 31
0.0
  0
ARC
  5
B9B8
330
B9AD
100
AcDbEntity
  8
0
100
AcDbCircle
 10
-4.602163150141952
 20
-62.49999999999997
 30
0.0
 40
1.499999999999986
100
AcDbArc
 50
44.99999999999992
 51
224.9999999999999
  0
LINE
  5
B9B9
330
B9AD
100
AcDbEntity
  8
0
100
AcDbLine
 10
-3.54150297836214
 20
-81.43933982822018
 30
0.0
 11
1.408244489943682
 21
-86.38908729652598
 31
0.0
  0
ARC
  5
B9BA
330
B9AD
100
AcDbEntity
  8
0
100
AcDbCircle
 10
0.3475843181639004
 20
-87.44974746830582
 30
0.0
 40
1.499999999999995
100
AcDbArc
 50
224.9999999999989
 51
45.00000000000103
  0
LINE
  5
B9BB
330
B9AD
100
AcDbEntity
  8
0
100
AcDbLine
 10
-0.7130758536159352
 20
-88.51040764008558
 30
0.0
 11
-5.662823321921779
 21
-83.5606601717798
 31
0.0
  0
ARC
  5
B9BC
330
B9AD
100
AcDbEntity
  8
0
100
AcDbCircle
 10
-4.602163150141954
 20
-82.5
 30
0.0
 40
1.499999999999986
100
AcDbArc
 50
45.00000000000039
 51
225.0000000000003
  0
LINE
  5
B9BD
330
B9AD
100
AcDbEntity
  8
0
100
AcDbLine
 10
-3.541502978362125
 20
-101.4393398282201
 30
0.0
 11
1.408244489943715
 21
-106.389087296526
 31
0.0
  0
ARC
  5
B9BE
330
B9AD
100
AcDbEntity
  8
0
100
AcDbCircle
 10
0.3475843181639093
 20
-107.4497474683058
 30
0.0
 40
1.499999999999995
100
AcDbArc
 50
224.9999999999992
 51
45.00000000000103
  0
LINE
  5
B9BF
330
B9AD
100
AcDbEntity
  8
0
100
AcDbLine
 10
-0.7130758536159301
 20
-108.5104076400856
 30
0.0
 11
-5.662823321921743
 21
-103.5606601717798
 31
0.0
  0
ARC
  5
B9C0
330
B9AD
100
AcDbEntity
  8
0
100
AcDbCircle
 10
-4.602163150141956
 20
-102.5
 30
0.0
 40
1.499999999999986
100
AcDbArc
 50
45.00000000000029
 51
225.0000000000003
  0
LINE
  5
B9C1
330
B9AD
100
AcDbEntity
  8
0
100
AcDbLine
 10
-3.541502978362117
 20
-121.4393398282202
 30
0.0
 11
1.408244489943716
 21
-126.389087296526
 31
0.0
  0
ARC
  5
B9C2
330
B9AD
100
AcDbEntity
  8
0
100
AcDbCircle
 10
0.3475843181639148
 20
-127.4497474683058
 30
0.0
 40
1.499999999999995
100
AcDbArc
 50
225.0000000000001
 51
45.00000000000103
  0
LINE
  5
B9C3
330
B9AD
100
AcDbEntity
  8
0
100
AcDbLine
 10
-0.7130758536158835
 20
-128.5104076400856
 30
0.0
 11
-5.662823321921754
 21
-123.5606601717798
 31
0.0
  0
ARC
  5
B9C4
330
B9AD
100
AcDbEntity
  8
0
100
AcDbCircle
 10
-4.602163150141934
 20
-122.5
 30
0.0
 40
1.499999999999986
100
AcDbArc
 50
45.00000000000045
 51
224.9999999999995
  0
LINE
  5
B9C5
330
B9AD
100
AcDbEntity
  8
0
100
AcDbLine
 10
-3.54150297836211
 20
-141.4393398282202
 30
0.0
 11
1.408244489943717
 21
-146.389087296526
 31
0.0
  0
ARC
  5
B9C6
330
B9AD
100
AcDbEntity
  8
0
100
AcDbCircle
 10
0.3475843181639282
 20
-147.4497474683058
 30
0.0
 40
1.499999999999995
100
AcDbArc
 50
225.0
 51
45.00000000000008
  0
LINE
  5
B9C7
330
B9AD
100
AcDbEntity
  8
0
100
AcDbLine
 10
-0.7130758536159052
 20
-148.5104076400856
 30
0.0
 11
-5.66282332192175
 21
-143.5606601717798
 31
0.0
  0
ARC
  5
B9C8
330
B9AD
100
AcDbEntity
  8
0
100
AcDbCircle
 10
-4.602163150141923
 20
-142.5
 30
0.0
 40
1.499999999999986
100
AcDbArc
 50
45.00000000000148
 51
224.9999999999984
  0
LINE
  5
B9C9
330
B9AD
100
AcDbEntity
  8
0
100
AcDbLine
 10
-3.541502978362091
 20
-161.4393398282202
 30
0.0
 11
1.408244489943748
 21
-166.389087296526
 31
0.0
  0
ARC
  5
B9CA
330
B9AD
100
AcDbEntity
  8
0
100
AcDbCircle
 10
0.3475843181639604
 20
-167.4497474683059
 30
0.0
 40
1.499999999999995
100
AcDbArc
 50
224.9999999999993
 51
45.00000000000287
  0
LINE
  5
B9CB
330
B9AD
100
AcDbEntity
  8
0
100
AcDbLine
 10
-0.7130758536158812
 20
-168.5104076400857
 30
0.0
 11
-5.662823321921724
 21
-163.5606601717799
 31
0.0
  0
ARC
  5
B9CC
330
B9AD
100
AcDbEntity
  8
0
100
AcDbCircle
 10
-4.602163150141914
 20
-162.5
 30
0.0
 40
1.499999999999986
100
AcDbArc
 50
45.0000000000016
 51
224.9999999999994
  0
LINE
  5
B9CD
330
B9AD
100
AcDbEntity
  8
0
100
AcDbLine
 10
-3.541502978362065
 20
-181.4393398282203
 30
0.0
 11
1.408244489943738
 21
-186.389087296526
 31
0.0
  0
ARC
  5
B9CE
330
B9AD
100
AcDbEntity
  8
0
100
AcDbCircle
 10
0.3475843181639459
 20
-187.4497474683058
 30
0.0
 40
1.499999999999995
100
AcDbArc
 50
225.0000000000012
 51
45.00000000000095
  0
LINE
  5
B9CF
330
B9AD
100
AcDbEntity
  8
0
100
AcDbLine
 10
-0.7130758536159019
 20
-188.5104076400857
 30
0.0
 11
-5.662823321921721
 21
-183.5606601717799
 31
0.0
  0
ARC
  5
B9D0
330
B9AD
100
AcDbEntity
  8
0
100
AcDbCircle
 10
-4.60216315014191
 20
-182.5
 30
0.0
 40
1.499999999999986
100
AcDbArc
 50
44.99999999999805
 51
224.9999999999995
  0
LINE
  5
B9D1
330
B9AD
100
AcDbEntity
  8
0
100
AcDbLine
 10
-20.28148349370166
 20
-5.999999999999965
 30
0.0
 11
-8.723483493701634
 21
-49.99999999999999
 31
0.0
  0
LINE
  5
B9D2
330
B9AD
100
AcDbEntity
  8
0
100
AcDbLine
 10
-20.28148349370166
 20
-5.999999999999965
 30
0.0
 11
-20.28148349370164
 21
-3.000000000000033
 31
0.0
  0
LINE
  5
B9D3
330
B9AD
100
AcDbEntity
  8
0
100
AcDbLine
 10
9.276516506298413
 20
-40.37802623350091
 30
0.0
 11
18.30699894281666
 21
-5.999999999999938
 31
0.0
  0
ARC
  5
B9D4
330
B9AD
100
AcDbEntity
  8
0
100
AcDbCircle
 10
0.5569989428162549
 20
66.50000000000034
 30
0.0
 40
2.500000000000002
100
AcDbArc
 50
128.148114212193
 51
231.8518857878129
  0
CIRCLE
  5
B9D5
330
B9AD
100
AcDbEntity
  8
0
100
AcDbCircle
 10
-2.531483493701627
 20
66.50000000000021
 30
0.0
 40
2.5
  0
CIRCLE
  5
B9D6
330
B9AD
100
AcDbEntity
  8
0
100
AcDbCircle
 10
-12.2814834937016
 20
41.50000000000016
 30
0.0
 40
2.5
  0
CIRCLE
  5
B9D7
330
B9AD
100
AcDbEntity
  8
0
100
AcDbCircle
 10
9.306516506298457
 20
90.50000000000018
 30
0.0
 40
4.250000000000001
  0
LINE
  5
B9D8
330
B9AD
100
AcDbEntity
  8
0
100
AcDbLine
 10
18.3065165062984
 20
-3.00000000000004
 30
0.0
 11
-20.28148349370161
 21
-3.000000000000027
 31
0.0
  0
LINE
  5
B9D9
330
B9AD
100
AcDbEntity
  8
0
100
AcDbLine
 10
18.3069989428163
 20
3.000000000000071
 30
0.0
 11
18.30699894281637
 21
0.0
 31
0.0
  0
LINE
  5
B9DA
330
B9AD
100
AcDbEntity
  8
0
100
AcDbLine
 10
-20.28148349370164
 20
2.999999999999895
 30
0.0
 11
-20.28148349370164
 21
-3.000000000000056
 31
0.0
  0
LINE
  5
B9DB
330
B9AD
100
AcDbEntity
  8
0
100
AcDbLine
 10
18.3065165062984
 20
-3.000000000000044
 30
0.0
 11
18.3065165062984
 21
2.999999999999971
 31
0.0
  0
LINE
  5
B9DC
330
B9AD
100
AcDbEntity
  8
0
100
AcDbLine
 10
13.30699894281625
 20
99.50000000000038
 30
0.0
 11
18.30699894281626
 21
94.50000000000034
 31
0.0
  0
LINE
  5
B9DD
330
B9AD
100
AcDbEntity
  8
0
100
AcDbLine
 10
13.30651650629838
 20
99.50000000000024
 30
0.0
 11
18.30651650629818
 21
94.50000000000024
 31
0.0
  0
LINE
  5
B9DE
330
B9AD
100
AcDbEntity
  8
0
100
AcDbLine
 10
-20.28148349370166
 20
94.50000000000017
 30
0.0
 11
-15.28148349370162
 21
99.50000000000017
 31
0.0
  0
LINE
  5
B9DF
330
B9AD
100
AcDbEntity
  8
0
100
AcDbLine
 10
18.30699894281626
 20
94.50000000000034
 30
0.0
 11
18.30699894281626
 21
3.00000000000006
 31
0.0
  0
LINE
  5
B9E0
330
B9AD
100
AcDbEntity
  8
0
100
AcDbLine
 10
13.30699894281625
 20
99.50000000000038
 30
0.0
 11
13.30651650629836
 21
99.50000000000038
 31
0.0
  0
LINE
  5
B9E1
330
B9AD
100
AcDbEntity
  8
0
100
AcDbLine
 10
-15.28148349370162
 20
99.50000000000017
 30
0.0
 11
13.30651650629838
 21
99.50000000000024
 31
0.0
  0
LINE
  5
B9E2
330
B9AD
100
AcDbEntity
  8
0
100
AcDbLine
 10
-20.28148349370157
 20
2.999999999999896
 30
0.0
 11
-20.28148349370166
 21
94.50000000000017
 31
0.0
  0
LINE
  5
B9E3
330
B9AD
100
AcDbEntity
  8
0
100
AcDbLine
 10
18.30651650629818
 20
94.50000000000024
 30
0.0
 11
18.30651650629841
 21
2.999999999999971
 31
0.0
  0
SPLINE
  5
B9E4
330
B9AD
100
AcDbEntity
  8
0
100
AcDbSpline
210
0.0
220
0.0
230
1.0
 70
     8
 71
     3
 72
     8
 73
     4
 74
     0
 42
0.000000001
 43
0.0000000001
 40
-0.7853981633974483
 40
-0.7853981633974483
 40
-0.7853981633974483
 40
-0.7853981633974483
 40
0.4300566693912323
 40
0.4300566693912323
 40
0.4300566693912323
 40
0.4300566693912323
 10
5.321844428310324
 20
-5.99999999999972
 30
0.0
 10
5.321844428310324
 20
-6.607727416394061
 30
0.0
 10
5.102816812626828
 20
-7.19417062352523
 30
0.0
 10
4.729484267181148
 20
-7.406279775322151
 30
0.0
  0
SPLINE
  5
B9E5
330
B9AD
100
AcDbEntity
  8
0
100
AcDbSpline
210
0.0
220
0.0
230
1.0
 70
     8
 71
     3
 72
    14
 73
    10
 74
     0
 42
0.000000001
 43
0.0000000001
 40
-0.7853981633973792
 40
-0.7853981633973792
 40
-0.7853981633973792
 40
-0.7853981633973792
 40
0.3160919271552693
 40
0.3160919271552693
 40
0.3160919271552693
 40
1.299764733775541
 40
1.299764733775541
 40
1.299764733775541
 40
2.35619449019219
 40
2.35619449019219
 40
2.35619449019219
 40
2.35619449019219
 10
3.276516506297912
 20
-5.999999999999826
 30
0.0
 10
3.276516506297968
 20
-6.550745045276151
 30
0.0
 10
3.779084263782144
 20
-7.088739243414002
 30
0.0
 10
4.500568670146167
 20
-7.337823404552413
 30
0.0
 10
5.144881857371284
 20
-7.560265093291298
 30
0.0
 10
5.91732480281498
 20
-7.54788218658625
 30
0.0
 10
6.461771453089411
 20
-7.305906800767648
 30
0.0
 10
7.046487873285533
 20
-7.046033806232533
 30
0.0
 10
7.367172350322029
 20
-6.528214878208259
 30
0.0
 10
7.367172350322119
 20
-5.999999999999933
 30
0.0
  0
LINE
  5
B9E6
330
B9AD
100
AcDbEntity
  8
0
100
AcDbLine
 10
7.367172350322466
 20
-5.99999999999972
 30
0.0
 11
7.367172350322466
 21
-3.000000000000039
 31
0.0
  0
LINE
  5
B9E7
330
B9AD
100
AcDbEntity
  8
0
100
AcDbLine
 10
5.321844428310429
 20
-5.99999999999972
 30
0.0
 11
5.321844428310429
 21
-3.000000000000039
 31
0.0
  0
LINE
  5
B9E8
330
B9AD
100
AcDbEntity
  8
0
100
AcDbLine
 10
-8.72348349370158
 20
-197.9370000000001
 30
0.0
 11
-11.25100105718319
 21
-197.9370000000001
 31
0.0
  0
LINE
  5
B9E9
330
B9AD
100
AcDbEntity
  8
0
100
AcDbLine
 10
9.276516506298468
 20
-197.9370000000002
 30
0.0
 11
3.276516506298461
 21
-197.9370000000002
 31
0.0
  0
LINE
  5
B9EA
330
B9AD
100
AcDbEntity
  8
0
100
AcDbLine
 10
-11.25100105718319
 20
-197.9370000000001
 30
0.0
 11
-11.25100105718328
 21
-40.37802623350128
 31
0.0
  0
LINE
  5
B9EB
330
B9AD
100
AcDbEntity
  8
0
100
AcDbLine
 10
9.276516506298461
 20
-197.9370000000002
 30
0.0
 11
9.276516506298369
 21
-3.000000000000042
 31
0.0
  0
ENDBLK
  5
B9AF
330
B9AD
100
AcDbEntity
  8
0
100
AcDbBlockEnd
  0
BLOCK
  5
B9ED
330
B9EC
100
AcDbEntity
  8
0
100
AcDbBlockBegin
  2
PBWS45-Left
 70
     0
 10
0.0
 20
0.0
 30
0.0
  3
PBWS45-Left
  1

  0
ARC
  5
B9EF
330
B9EC
100
AcDbEntity
  8
0
100
AcDbCircle
 10
-9.536272079978633
 20
-5.999999999999866
 30
0.0
 40
3.000000000000016
100
AcDbArc
 50
0.0
 51
90.0
  0
ARC
  5
B9F0
330
B9EC
100
AcDbEntity
  8
0
100
AcDbCircle
 10
-9.53627207997863
 20
-5.999999999999866
 30
0.0
 40
6.000000000000019
100
AcDbArc
 50
39.78608288672493
 51
90.00000000000005
  0
LINE
  5
B9F1
330
B9EC
100
AcDbEntity
  8
0
100
AcDbLine
 10
-6.536272079978633
 20
-5.999999999999955
 30
0.0
 11
-6.536272079978667
 21
-197.9370000000001
 31
0.0
  0
LINE
  5
B9F2
330
B9EC
100
AcDbEntity
  8
0
100
AcDbLine
 10
-17.25427207997835
 20
0.0
 30
0.0
 11
-18.51299894247835
 21
0.0
 31
0.0
  0
LINE
  5
B9F3
330
B9EC
100
AcDbEntity
  8
0
100
AcDbLine
 10
-18.51299894247835
 20
-2.999999999999859
 30
0.0
 11
-17.25427207997835
 21
-2.999999999999862
 31
0.0
  0
LINE
  5
B9F4
330
B9EC
100
AcDbEntity
  8
0
100
AcDbLine
 10
-12.25427207997844
 20
0.0
 30
0.0
 11
-17.25427207997835
 21
0.0
 31
0.0
  0
LINE
  5
B9F5
330
B9EC
100
AcDbEntity
  8
0
100
AcDbLine
 10
-17.25427207997835
 20
0.0
 30
0.0
 11
-17.25427207997835
 21
-2.999999999999862
 31
0.0
  0
LINE
  5
B9F6
330
B9EC
100
AcDbEntity
  8
0
100
AcDbLine
 10
-17.25427207997835
 20
-2.999999999999862
 30
0.0
 11
-12.25427207997844
 21
-2.999999999999868
 31
0.0
  0
LINE
  5
B9F7
330
B9EC
100
AcDbEntity
  8
0
100
AcDbLine
 10
-12.25427207997844
 20
-2.999999999999868
 30
0.0
 11
-12.25427207997844
 21
0.0
 31
0.0
  0
LINE
  5
B9F8
330
B9EC
100
AcDbEntity
  8
0
100
AcDbLine
 10
-10.75427207997864
 20
0.0
 30
0.0
 11
-12.2542720799786
 21
0.0
 31
0.0
  0
LINE
  5
B9F9
330
B9EC
100
AcDbEntity
  8
0
100
AcDbLine
 10
-12.25427207997861
 20
-2.999999999999854
 30
0.0
 11
-10.75427207997863
 21
-2.999999999999853
 31
0.0
  0
LINE
  5
B9FA
330
B9EC
100
AcDbEntity
  8
0
100
AcDbLine
 10
-9.536272079978633
 20
0.0
 30
0.0
 11
-10.75427207997863
 21
0.0
 31
0.0
  0
LINE
  5
B9FB
330
B9EC
100
AcDbEntity
  8
0
100
AcDbLine
 10
-10.75427207997864
 20
-2.999999999999847
 30
0.0
 11
-9.536272079978633
 21
-2.999999999999855
 31
0.0
  0
LINE
  5
B9FC
330
B9EC
100
AcDbEntity
  8
0
100
AcDbLine
 10
20.48700105732385
 20
0.0
 30
0.0
 11
11.51027419482388
 21
0.0
 31
0.0
  0
ARC
  5
B9FD
330
B9EC
100
AcDbEntity
  8
0
100
AcDbCircle
 10
11.51027419482389
 20
-6.000000000000027
 30
0.0
 40
6.000000000000001
100
AcDbArc
 50
90.00000000000017
 51
180.0
  0
ARC
  5
B9FE
330
B9EC
100
AcDbEntity
  8
0
100
AcDbCircle
 10
11.51027419482389
 20
-6.000000000000027
 30
0.0
 40
2.999999999999993
100
AcDbArc
 50
90.0000000000003
 51
180.0
  0
LINE
  5
B9FF
330
B9EC
100
AcDbEntity
  8
0
100
AcDbLine
 10
11.51027419482387
 20
-3.000000000000046
 30
0.0
 11
20.48700105732385
 21
-3.000000000000027
 31
0.0
  0
LINE
  5
BA00
330
B9EC
100
AcDbEntity
  8
0
100
AcDbLine
 10
8.510274194823825
 20
-197.9370000000001
 30
0.0
 11
8.510274194823624
 21
-50.0
 31
0.0
  0
LINE
  5
BA01
330
B9EC
100
AcDbEntity
  8
0
100
AcDbLine
 10
5.510274194823631
 20
-49.99999999999996
 30
0.0
 11
5.510274194823808
 21
-197.9370000000001
 31
0.0
  0
LINE
  5
BA02
330
B9EC
100
AcDbEntity
  8
0
100
AcDbLine
 10
5.510274194823808
 20
-197.9370000000001
 30
0.0
 11
8.510274194823825
 21
-197.9370000000001
 31
0.0
  0
LINE
  5
BA03
330
B9EC
100
AcDbEntity
  8
0
100
AcDbLine
 10
8.510274194823864
 20
-5.999999999999965
 30
0.0
 11
8.510274194823624
 21
-49.99999999999999
 31
0.0
  0
LINE
  5
BA04
330
B9EC
100
AcDbEntity
  8
0
100
AcDbLine
 10
5.510274194823631
 20
-49.99999999999996
 30
0.0
 11
5.510274194823856
 21
-5.999999999999952
 31
0.0
  0
LINE
  5
BA05
330
B9EC
100
AcDbEntity
  8
0
100
AcDbLine
 10
5.510274194823856
 20
-5.999999999999959
 30
0.0
 11
8.510274194823864
 21
-5.999999999999965
 31
0.0
  0
LINE
  5
BA06
330
B9EC
100
AcDbEntity
  8
0
100
AcDbLine
 10
8.510274194823624
 20
-49.99999999999999
 30
0.0
 11
5.510274194823631
 21
-49.99999999999996
 31
0.0
  0
LINE
  5
BA07
330
B9EC
100
AcDbEntity
  8
0
100
AcDbLine
 10
5.463727920021382
 20
0.0
 30
0.0
 11
6.899640295498441
 21
0.0
 31
0.0
  0
LINE
  5
BA08
330
B9EC
100
AcDbEntity
  8
0
100
AcDbLine
 10
-4.925638180653263
 20
-5.99999999999993
 30
0.0
 11
-4.925638180653263
 21
0.0
 31
0.0
  0
LINE
  5
BA09
330
B9EC
100
AcDbEntity
  8
0
100
AcDbLine
 10
6.899640295498439
 20
-2.160461610246511
 30
0.0
 11
6.899640295498441
 21
0.0
 31
0.0
  0
LINE
  5
BA0A
330
B9EC
100
AcDbEntity
  8
0
100
AcDbLine
 10
5.463727920021392
 20
0.0
 30
0.0
 11
-4.925638180653266
 21
0.0
 31
0.0
  0
LINE
  5
BA0B
330
B9EC
100
AcDbEntity
  8
0
100
AcDbLine
 10
-21.51299894247793
 20
94.50000000000038
 30
0.0
 11
-21.51299894247794
 21
99.50000000000043
 31
0.0
  0
LINE
  5
BA0C
330
B9EC
100
AcDbEntity
  8
0
100
AcDbLine
 10
26.48700105732368
 20
99.50000000000017
 30
0.0
 11
23.48700105732366
 21
99.50000000000017
 31
0.0
  0
LINE
  5
BA0D
330
B9EC
100
AcDbEntity
  8
0
100
AcDbLine
 10
23.48700105732366
 20
99.50000000000017
 30
0.0
 11
23.48700105732377
 21
94.50000000000015
 31
0.0
  0
LINE
  5
BA0E
330
B9EC
100
AcDbEntity
  8
0
100
AcDbLine
 10
26.4870010573237
 20
94.50000000000017
 30
0.0
 11
26.48700105732368
 21
99.50000000000017
 31
0.0
  0
LINE
  5
BA0F
330
B9EC
100
AcDbEntity
  8
0
100
AcDbLine
 10
23.48700105732377
 20
94.50000000000015
 30
0.0
 11
26.4870010573237
 21
94.50000000000017
 31
0.0
  0
LINE
  5
BA10
330
B9EC
100
AcDbEntity
  8
0
100
AcDbLine
 10
-24.51299894247795
 20
99.50000000000043
 30
0.0
 11
-24.51299894247794
 21
94.50000000000043
 31
0.0
  0
LINE
  5
BA11
330
B9EC
100
AcDbEntity
  8
0
100
AcDbLine
 10
-24.51299894247794
 20
94.50000000000043
 30
0.0
 11
-21.51299894247793
 21
94.50000000000038
 31
0.0
  0
LINE
  5
BA12
330
B9EC
100
AcDbEntity
  8
0
100
AcDbLine
 10
-21.51299894247794
 20
99.50000000000043
 30
0.0
 11
-24.51299894247795
 21
99.50000000000043
 31
0.0
  0
LINE
  5
BA13
330
B9EC
100
AcDbEntity
  8
0
100
AcDbLine
 10
-21.51299894247793
 20
94.50000000000038
 30
0.0
 11
-21.51299894247839
 21
3.00000000000006
 31
0.0
  0
LINE
  5
BA14
330
B9EC
100
AcDbEntity
  8
0
100
AcDbLine
 10
23.48700105732377
 20
94.50000000000015
 30
0.0
 11
23.48700105732389
 21
2.9999999999999
 31
0.0
  0
LINE
  5
BA15
330
B9EC
100
AcDbEntity
  8
0
100
AcDbLine
 10
26.4870010573239
 20
2.999999999999896
 30
0.0
 11
26.4870010573237
 21
94.50000000000017
 31
0.0
  0
LINE
  5
BA16
330
B9EC
100
AcDbEntity
  8
0
100
AcDbLine
 10
-24.51299894247794
 20
94.50000000000043
 30
0.0
 11
-24.5129989424784
 21
3.000000000000078
 31
0.0
  0
ARC
  5
BA17
330
B9EC
100
AcDbEntity
  8
0
100
AcDbCircle
 10
-18.5129989424784
 20
3.000000000000029
 30
0.0
 40
5.999999999999988
100
AcDbArc
 50
180.0
 51
270.0000000000004
  0
ARC
  5
BA18
330
B9EC
100
AcDbEntity
  8
0
100
AcDbCircle
 10
-18.5129989424784
 20
3.000000000000029
 30
0.0
 40
2.999999999999984
100
AcDbArc
 50
180.0
 51
270.0000000000009
  0
ARC
  5
BA19
330
B9EC
100
AcDbEntity
  8
0
100
AcDbCircle
 10
20.48700105732395
 20
2.999999999999891
 30
0.0
 40
5.999999999999948
100
AcDbArc
 50
269.9999999999991
 51
0.0
  0
ARC
  5
BA1A
330
B9EC
100
AcDbEntity
  8
0
100
AcDbCircle
 10
20.48700105732395
 20
2.999999999999891
 30
0.0
 40
2.999999999999948
100
AcDbArc
 50
269.9999999999983
 51
0.0
  0
SPLINE
  5
BA1B
330
B9EC
100
AcDbEntity
  8
0
100
AcDbSpline
210
0.0
220
0.0
230
1.0
 70
     8
 71
     3
 72
    11
 73
     7
 74
     0
 42
0.000000001
 43
0.0000000001
 40
1.34371504794268
 40
1.34371504794268
 40
1.34371504794268
 40
1.34371504794268
 40
1.569165144395759
 40
1.569165144395759
 40
1.569165144395759
 40
2.356194490192133
 40
2.356194490192133
 40
2.356194490192133
 40
2.356194490192133
 10
5.46126058483377
 20
-7.26981274861248
 30
0.0
 10
5.475114289613348
 20
-7.21131167566332
 30
0.0
 10
5.485452431583361
 20
-7.141967410822505
 30
0.0
 10
5.492045067768572
 20
-7.062388890137318
 30
0.0
 10
5.515059465302877
 20
-6.78458625416754
 30
0.0
 10
5.510274194823836
 20
-6.393514672898228
 30
0.0
 10
5.510274194823836
 20
-6.00000000000004
 30
0.0
  0
SPLINE
  5
BA1C
330
B9EC
100
AcDbEntity
  8
0
100
AcDbSpline
210
0.0
220
0.0
230
1.0
 70
     8
 71
     3
 72
    14
 73
    10
 74
     0
 42
0.000000001
 43
0.0000000001
 40
-0.7853981633974366
 40
-0.7853981633974366
 40
-0.7853981633974366
 40
-0.7853981633974366
 40
0.3160919271552178
 40
0.3160919271552178
 40
0.3160919271552178
 40
1.299764733775491
 40
1.299764733775491
 40
1.299764733775491
 40
2.356194490192299
 40
2.356194490192299
 40
2.356194490192299
 40
2.356194490192299
 10
-6.536272079978666
 20
-5.999999999999927
 30
0.0
 10
-6.536272079978666
 20
-6.550745045276254
 30
0.0
 10
-6.560437653343839
 20
-7.088739243414149
 30
0.0
 10
-6.410086539099624
 20
-7.337823404552587
 30
0.0
 10
-6.275817239906126
 20
-7.560265093291492
 30
0.0
 10
-5.962032630250116
 20
-7.547882186586475
 30
0.0
 10
-5.62096980196182
 20
-7.305906800767894
 30
0.0
 10
-5.254680403508903
 20
-7.046033806232763
 30
0.0
 10
-4.925638180653254
 20
-6.528214878208371
 30
0.0
 10
-4.925638180653227
 20
-5.999999999999966
 30
0.0
  0
LINE
  5
BA1D
330
B9EC
100
AcDbEntity
  8
0
100
AcDbLine
 10
5.463727920021361
 20
-197.9370000000001
 30
0.0
 11
-6.536272079978662
 21
-197.9370000000001
 31
0.0
  0
LINE
  5
BA1E
330
B9EC
100
AcDbEntity
  8
0
100
AcDbLine
 10
5.463727920021358
 20
-197.9370000000002
 30
0.0
 11
5.510274194823805
 21
-197.9370000000002
 31
0.0
  0
ARC
  5
BA1F
330
B9EC
100
AcDbEntity
  8
0
100
AcDbCircle
 10
-12.2433788611654
 20
-3.999999999999847
 30
0.0
 40
1.0
100
AcDbArc
 50
45.0000000000001
 51
89.99999999999987
  0
ARC
  5
BA20
330
B9EC
100
AcDbEntity
  8
0
100
AcDbCircle
 10
-7.536272079978876
 20
-8.70710678118638
 30
0.0
 40
1.0
100
AcDbArc
 50
0.0
 51
44.99999999999985
  0
ARC
  5
BA21
330
B9EC
100
AcDbEntity
  8
0
100
AcDbCircle
 10
14.21738097601033
 20
-4.000000000000007
 30
0.0
 40
1.0
100
AcDbArc
 50
90.0
 51
135.0
  0
ARC
  5
BA22
330
B9EC
100
AcDbEntity
  8
0
100
AcDbCircle
 10
9.510274194823711
 20
-8.707106781186626
 30
0.0
 40
1.0
100
AcDbArc
 50
134.9999999999999
 51
180.0
  0
LINE
  5
BA23
330
B9EC
100
AcDbEntity
  8
0
100
AcDbLine
 10
-6.829165298792323
 20
-7.999999999999825
 30
0.0
 11
-11.53627207997885
 21
-3.292893218813294
 31
0.0
  0
LINE
  5
BA24
330
B9EC
100
AcDbEntity
  8
0
100
AcDbLine
 10
8.803167413637165
 20
-8.000000000000079
 30
0.0
 11
13.51027419482378
 21
-3.29289321881346
 31
0.0
  0
LINE
  5
BA25
330
B9EC
100
AcDbEntity
  8
0
100
AcDbLine
 10
5.463727920021355
 20
-197.9370000000001
 30
0.0
 11
5.463727920021383
 21
0.0
 31
0.0
  0
ENDBLK
  5
B9EE
330
B9EC
100
AcDbEntity
  8
0
100
AcDbBlockEnd
  0
BLOCK
  5
BA27
330
BA26
100
AcDbEntity
  8
0
100
AcDbBlockBegin
  2
PBWS45-Right
 70
     0
 10
0.0
 20
0.0
 30
0.0
  3
PBWS45-Right
  1

  0
LINE
  5
BA29
330
BA26
100
AcDbEntity
  8
0
100
AcDbLine
 10
6.536272079978902
 20
-197.9370000000001
 30
0.0
 11
6.536272079979066
 21
-50.0
 31
0.0
  0
LINE
  5
BA2A
330
BA26
100
AcDbEntity
  8
0
100
AcDbLine
 10
3.536272079978808
 20
-50.0
 30
0.0
 11
3.536272079978911
 21
-197.9370000000001
 31
0.0
  0
LINE
  5
BA2B
330
BA26
100
AcDbEntity
  8
0
100
AcDbLine
 10
3.536272079978911
 20
-197.9370000000001
 30
0.0
 11
6.536272079978902
 21
-197.9370000000001
 31
0.0
  0
LINE
  5
BA2C
330
BA26
100
AcDbEntity
  8
0
100
AcDbLine
 10
6.536272079979111
 20
-5.999999999999939
 30
0.0
 11
6.536272079979066
 21
-50.0
 31
0.0
  0
LINE
  5
BA2D
330
BA26
100
AcDbEntity
  8
0
100
AcDbLine
 10
3.536272079978808
 20
-50.0
 30
0.0
 11
3.536272079979098
 21
-5.999999999999943
 31
0.0
  0
LINE
  5
BA2E
330
BA26
100
AcDbEntity
  8
0
100
AcDbLine
 10
3.536272079979098
 20
-5.999999999999941
 30
0.0
 11
6.536272079979111
 21
-5.999999999999939
 31
0.0
  0
LINE
  5
BA2F
330
BA26
100
AcDbEntity
  8
0
100
AcDbLine
 10
6.536272079979066
 20
-50.0
 30
0.0
 11
3.536272079978808
 21
-50.0
 31
0.0
  0
LINE
  5
BA30
330
BA26
100
AcDbEntity
  8
0
100
AcDbLine
 10
18.51299894247917
 20
0.0
 30
0.0
 11
9.536272079979104
 21
0.0
 31
0.0
  0
ARC
  5
BA31
330
BA26
100
AcDbEntity
  8
0
100
AcDbCircle
 10
9.536272079979099
 20
-5.999999999999862
 30
0.0
 40
6.000000000000023
100
AcDbArc
 50
89.99999999999998
 51
180.0
  0
ARC
  5
BA32
330
BA26
100
AcDbEntity
  8
0
100
AcDbCircle
 10
9.536272079979099
 20
-5.999999999999862
 30
0.0
 40
3.000000000000018
100
AcDbArc
 50
89.99999999999968
 51
180.0
  0
LINE
  5
BA33
330
BA26
100
AcDbEntity
  8
0
100
AcDbLine
 10
9.536272079979116
 20
-2.999999999999833
 30
0.0
 11
18.51299894247914
 21
-2.999999999999833
 31
0.0
  0
ARC
  5
BA34
330
BA26
100
AcDbEntity
  8
0
100
AcDbCircle
 10
-11.5102741948238
 20
-6.000000000000018
 30
0.0
 40
6.000000000000017
100
AcDbArc
 50
39.78608288672511
 51
90.00000000000003
  0
ARC
  5
BA35
330
BA26
100
AcDbEntity
  8
0
100
AcDbCircle
 10
-11.51027419482379
 20
-6.000000000000027
 30
0.0
 40
3.000000000000012
100
AcDbArc
 50
0.0
 51
90.00000000000005
  0
LINE
  5
BA36
330
BA26
100
AcDbEntity
  8
0
100
AcDbLine
 10
-19.22827419482373
 20
0.0
 30
0.0
 11
-20.48700105732372
 21
0.0
 31
0.0
  0
LINE
  5
BA37
330
BA26
100
AcDbEntity
  8
0
100
AcDbLine
 10
-20.48700105732371
 20
-3.00000000000004
 30
0.0
 11
-19.22827419482373
 21
-3.000000000000036
 31
0.0
  0
LINE
  5
BA38
330
BA26
100
AcDbEntity
  8
0
100
AcDbLine
 10
-14.22827419482375
 20
0.0
 30
0.0
 11
-19.22827419482373
 21
0.0
 31
0.0
  0
LINE
  5
BA39
330
BA26
100
AcDbEntity
  8
0
100
AcDbLine
 10
-19.22827419482373
 20
0.0
 30
0.0
 11
-19.22827419482373
 21
-3.000000000000036
 31
0.0
  0
LINE
  5
BA3A
330
BA26
100
AcDbEntity
  8
0
100
AcDbLine
 10
-19.22827419482373
 20
-3.000000000000036
 30
0.0
 11
-14.22827419482375
 21
-3.000000000000015
 31
0.0
  0
LINE
  5
BA3B
330
BA26
100
AcDbEntity
  8
0
100
AcDbLine
 10
-14.22827419482375
 20
-3.000000000000015
 30
0.0
 11
-14.22827419482375
 21
0.0
 31
0.0
  0
LINE
  5
BA3C
330
BA26
100
AcDbEntity
  8
0
100
AcDbLine
 10
-12.7282741948238
 20
0.0
 30
0.0
 11
-14.22827419482379
 21
0.0
 31
0.0
  0
LINE
  5
BA3D
330
BA26
100
AcDbEntity
  8
0
100
AcDbLine
 10
-14.22827419482378
 20
-3.000000000000008
 30
0.0
 11
-12.72827419482379
 21
-3.000000000000011
 31
0.0
  0
LINE
  5
BA3E
330
BA26
100
AcDbEntity
  8
0
100
AcDbLine
 10
-11.5102741948238
 20
0.0
 30
0.0
 11
-12.7282741948238
 21
0.0
 31
0.0
  0
LINE
  5
BA3F
330
BA26
100
AcDbEntity
  8
0
100
AcDbLine
 10
-12.72827419482379
 20
-3.0
 30
0.0
 11
-11.51027419482379
 21
-3.000000000000008
 31
0.0
  0
LINE
  5
BA40
330
BA26
100
AcDbEntity
  8
0
100
AcDbLine
 10
-8.5102741948238
 20
-197.9370000000001
 30
0.0
 11
-8.510274194823779
 21
-5.999999999999978
 31
0.0
  0
LINE
  5
BA41
330
BA26
100
AcDbEntity
  8
0
100
AcDbLine
 10
3.489725805176283
 20
0.0
 30
0.0
 11
-6.899640295498437
 21
0.0
 31
0.0
  0
LINE
  5
BA42
330
BA26
100
AcDbEntity
  8
0
100
AcDbLine
 10
4.925638180653262
 20
-2.160461610246796
 30
0.0
 11
4.925638180653263
 21
0.0
 31
0.0
  0
LINE
  5
BA43
330
BA26
100
AcDbEntity
  8
0
100
AcDbLine
 10
3.489725805176278
 20
0.0
 30
0.0
 11
4.925638180653263
 21
0.0
 31
0.0
  0
LINE
  5
BA44
330
BA26
100
AcDbEntity
  8
0
100
AcDbLine
 10
-6.899640295498439
 20
-5.99999999999972
 30
0.0
 11
-6.899640295498441
 21
0.0
 31
0.0
  0
LINE
  5
BA45
330
BA26
100
AcDbEntity
  8
0
100
AcDbLine
 10
24.51299894247866
 20
94.50000000000038
 30
0.0
 11
24.51299894247853
 21
99.50000000000043
 31
0.0
  0
LINE
  5
BA46
330
BA26
100
AcDbEntity
  8
0
100
AcDbLine
 10
24.51299894247853
 20
99.50000000000043
 30
0.0
 11
21.51299894247852
 21
99.50000000000038
 31
0.0
  0
LINE
  5
BA47
330
BA26
100
AcDbEntity
  8
0
100
AcDbLine
 10
21.51299894247852
 20
99.50000000000038
 30
0.0
 11
21.51299894247876
 21
94.50000000000034
 31
0.0
  0
LINE
  5
BA48
330
BA26
100
AcDbEntity
  8
0
100
AcDbLine
 10
21.51299894247876
 20
94.50000000000034
 30
0.0
 11
24.51299894247866
 21
94.50000000000038
 31
0.0
  0
LINE
  5
BA49
330
BA26
100
AcDbEntity
  8
0
100
AcDbLine
 10
-26.4870010573236
 20
99.50000000000024
 30
0.0
 11
-26.48700105732367
 21
94.50000000000024
 31
0.0
  0
LINE
  5
BA4A
330
BA26
100
AcDbEntity
  8
0
100
AcDbLine
 10
-26.48700105732367
 20
94.50000000000024
 30
0.0
 11
-23.48700105732367
 21
94.50000000000024
 31
0.0
  0
LINE
  5
BA4B
330
BA26
100
AcDbEntity
  8
0
100
AcDbLine
 10
-23.48700105732367
 20
94.50000000000024
 30
0.0
 11
-23.4870010573236
 21
99.50000000000024
 31
0.0
  0
LINE
  5
BA4C
330
BA26
100
AcDbEntity
  8
0
100
AcDbLine
 10
-23.4870010573236
 20
99.50000000000024
 30
0.0
 11
-26.4870010573236
 21
99.50000000000024
 31
0.0
  0
LINE
  5
BA4D
330
BA26
100
AcDbEntity
  8
0
100
AcDbLine
 10
21.51299894247876
 20
94.50000000000034
 30
0.0
 11
21.51299894247916
 21
3.00000000000006
 31
0.0
  0
LINE
  5
BA4E
330
BA26
100
AcDbEntity
  8
0
100
AcDbLine
 10
24.51299894247917
 20
3.000000000000073
 30
0.0
 11
24.51299894247866
 21
94.50000000000038
 31
0.0
  0
LINE
  5
BA4F
330
BA26
100
AcDbEntity
  8
0
100
AcDbLine
 10
-23.48700105732367
 20
94.50000000000024
 30
0.0
 11
-23.4870010573238
 21
2.999999999999953
 31
0.0
  0
LINE
  5
BA50
330
BA26
100
AcDbEntity
  8
0
100
AcDbLine
 10
-26.48700105732367
 20
94.50000000000024
 30
0.0
 11
-26.4870010573238
 21
2.999999999999971
 31
0.0
  0
ARC
  5
BA51
330
BA26
100
AcDbEntity
  8
0
100
AcDbCircle
 10
18.5129989424792
 20
3.000000000000051
 30
0.0
 40
5.999999999999985
100
AcDbArc
 50
269.9999999999995
 51
0.0
  0
ARC
  5
BA52
330
BA26
100
AcDbEntity
  8
0
100
AcDbCircle
 10
18.51299894247921
 20
3.000000000000051
 30
0.0
 40
2.999999999999976
100
AcDbArc
 50
269.9999999999993
 51
0.0
  0
ARC
  5
BA53
330
BA26
100
AcDbEntity
  8
0
100
AcDbCircle
 10
-20.48700105732378
 20
2.999999999999962
 30
0.0
 40
6.000000000000007
100
AcDbArc
 50
180.0
 51
270.0000000000006
  0
ARC
  5
BA54
330
BA26
100
AcDbEntity
  8
0
100
AcDbCircle
 10
-20.48700105732378
 20
2.999999999999962
 30
0.0
 40
3.00000000000001
100
AcDbArc
 50
180.0
 51
270.0000000000012
  0
SPLINE
  5
BA55
330
BA26
100
AcDbEntity
  8
0
100
AcDbSpline
210
0.0
220
0.0
230
1.0
 70
     8
 71
     3
 72
    14
 73
    10
 74
     0
 42
0.000000001
 43
0.0000000001
 40
-0.7853981633973792
 40
-0.7853981633973792
 40
-0.7853981633973792
 40
-0.7853981633973792
 40
0.3160919271552693
 40
0.3160919271552693
 40
0.3160919271552693
 40
1.299764733775541
 40
1.299764733775541
 40
1.299764733775541
 40
2.35619449019219
 40
2.35619449019219
 40
2.35619449019219
 40
2.35619449019219
 10
-8.510274194823765
 20
-5.999999999999826
 30
0.0
 10
-8.510274194823765
 20
-6.550745045276151
 30
0.0
 10
-8.534439768188978
 20
-7.088739243414002
 30
0.0
 10
-8.384088653944813
 20
-7.337823404552413
 30
0.0
 10
-8.249819354751352
 20
-7.560265093291298
 30
0.0
 10
-7.9360347450954
 20
-7.54788218658625
 30
0.0
 10
-7.594971916807158
 20
-7.305906800767648
 30
0.0
 10
-7.228682518354352
 20
-7.046033806232533
 30
0.0
 10
-6.899640295498775
 20
-6.528214878208259
 30
0.0
 10
-6.899640295498691
 20
-5.999999999999933
 30
0.0
  0
SPLINE
  5
BA56
330
BA26
100
AcDbEntity
  8
0
100
AcDbSpline
210
0.0
220
0.0
230
1.0
 70
     8
 71
     3
 72
    11
 73
     7
 74
     0
 42
0.000000001
 43
0.0000000001
 40
-0.227081278851625
 40
-0.227081278851625
 40
-0.227081278851625
 40
-0.227081278851625
 40
-0.0016311823990685
 40
-0.0016311823990685
 40
-0.0016311823990685
 40
0.7853981633974372
 40
0.7853981633974372
 40
0.7853981633974372
 40
0.7853981633974372
 10
3.487258469988637
 20
-7.269812748612224
 30
0.0
 10
3.50111217476817
 20
-7.211311675663144
 30
0.0
 10
3.511450316738153
 20
-7.141967410822463
 30
0.0
 10
3.51804295292335
 20
-7.062388890137455
 30
0.0
 10
3.54105735045767
 20
-6.784586254167611
 30
0.0
 10
3.536272079978627
 20
-6.39351467289818
 30
0.0
 10
3.536272079978626
 20
-5.999999999999927
 30
0.0
  0
LINE
  5
BA57
330
BA26
100
AcDbEntity
  8
0
100
AcDbLine
 10
3.489725805176226
 20
-197.9370000000001
 30
0.0
 11
3.536272079978659
 21
-197.9370000000001
 31
0.0
  0
LINE
  5
BA58
330
BA26
100
AcDbEntity
  8
0
100
AcDbLine
 10
3.48972580517623
 20
-197.9370000000002
 30
0.0
 11
-8.510274194823807
 21
-197.9370000000002
 31
0.0
  0
ARC
  5
BA59
330
BA26
100
AcDbEntity
  8
0
100
AcDbCircle
 10
12.2433788611654
 20
-3.999999999999847
 30
0.0
 40
1.0
100
AcDbArc
 50
90.00000000000012
 51
134.9999999999999
  0
ARC
  5
BA5A
330
BA26
100
AcDbEntity
  8
0
100
AcDbCircle
 10
7.536272079978876
 20
-8.70710678118638
 30
0.0
 40
1.0
100
AcDbArc
 50
135.0000000000001
 51
180.0
  0
ARC
  5
BA5B
330
BA26
100
AcDbEntity
  8
0
100
AcDbCircle
 10
-14.21738097601033
 20
-4.000000000000007
 30
0.0
 40
1.0
100
AcDbArc
 50
44.99999999999991
 51
90.0
  0
ARC
  5
BA5C
330
BA26
100
AcDbEntity
  8
0
100
AcDbCircle
 10
-9.510274194823711
 20
-8.707106781186626
 30
0.0
 40
1.0
100
AcDbArc
 50
0.0
 51
45.00000000000003
  0
LINE
  5
BA5D
330
BA26
100
AcDbEntity
  8
0
100
AcDbLine
 10
6.829165298792323
 20
-7.999999999999825
 30
0.0
 11
11.53627207997885
 21
-3.292893218813294
 31
0.0
  0
LINE
  5
BA5E
330
BA26
100
AcDbEntity
  8
0
100
AcDbLine
 10
-8.803167413637165
 20
-8.000000000000079
 30
0.0
 11
-13.51027419482378
 21
-3.29289321881346
 31
0.0
  0
LINE
  5
BA5F
330
BA26
100
AcDbEntity
  8
0
100
AcDbLine
 10
3.489725805176222
 20
-197.9370000000002
 30
0.0
 11
3.489725805176244
 21
0.0
 31
0.0
  0
ENDBLK
  5
BA28
330
BA26
100
AcDbEntity
  8
0
100
AcDbBlockEnd
  0
BLOCK
  5
BA61
330
BA60
100
AcDbEntity
  8
0
100
AcDbBlockBegin
  2
PBWS45-Top
 70
     0
 10
0.0
 20
0.0
 30
0.0
  3
PBWS45-Top
  1

  0
LINE
  5
BA63
330
BA60
100
AcDbEntity
  8
0
100
AcDbLine
 10
6.748998942816641
 20
3.536272079978871
 30
0.0
 11
9.699619020070105
 21
3.536272079978927
 31
0.0
  0
LINE
  5
BA64
330
BA60
100
AcDbEntity
  8
0
100
AcDbLine
 10
3.398378865563219
 20
3.536272079978806
 30
0.0
 11
6.748998942816633
 21
3.536272079978871
 31
0.0
  0
LINE
  5
BA65
330
BA60
100
AcDbEntity
  8
0
100
AcDbLine
 10
-8.72348349370163
 20
-5.510274194823715
 30
0.0
 11
-11.67410357095521
 21
-5.510274194823715
 31
0.0
  0
LINE
  5
BA66
330
BA60
100
AcDbEntity
  8
0
100
AcDbLine
 10
-5.372863416448067
 20
-5.510274194823715
 30
0.0
 11
-8.723483493701628
 21
-5.510274194823715
 31
0.0
  0
LINE
  5
BA67
330
BA60
100
AcDbEntity
  8
0
100
AcDbLine
 10
-5.251001057183497
 20
9.536272079978632
 30
0.0
 11
-5.251001057183377
 21
3.53627207997861
 31
0.0
  0
LINE
  5
BA68
330
BA60
100
AcDbEntity
  8
0
100
AcDbLine
 10
-5.251001057183374
 20
3.536272079978637
 30
0.0
 11
1.337311284732072
 21
3.536272079978767
 31
0.0
  0
LINE
  5
BA69
330
BA60
100
AcDbEntity
  8
0
100
AcDbLine
 10
1.337311284732072
 20
3.536272079978767
 30
0.0
 11
3.398378865563222
 21
3.536272079978805
 31
0.0
  0
LINE
  5
BA6A
330
BA60
100
AcDbEntity
  8
0
100
AcDbLine
 10
3.276516506298369
 20
-11.5102741948238
 30
0.0
 11
3.276516506298356
 21
-5.510274194823781
 31
0.0
  0
LINE
  5
BA6B
330
BA60
100
AcDbEntity
  8
0
100
AcDbLine
 10
3.276516506298366
 20
-5.510274194823781
 30
0.0
 11
-3.311795835617023
 21
-5.510274194823803
 31
0.0
  0
LINE
  5
BA6C
330
BA60
100
AcDbEntity
  8
0
100
AcDbLine
 10
-3.311795835617023
 20
-5.510274194823803
 30
0.0
 11
-5.37286341644807
 21
-5.510274194823809
 31
0.0
  0
LINE
  5
BA6D
330
BA60
100
AcDbEntity
  8
0
100
AcDbLine
 10
18.30699894281634
 20
18.51299894247917
 30
0.0
 11
18.30699894281652
 21
9.536272079979104
 31
0.0
  0
LINE
  5
BA6E
330
BA60
100
AcDbEntity
  8
0
100
AcDbLine
 10
9.699619020070123
 20
3.536272079978911
 30
0.0
 11
18.30699894281666
 21
3.536272079979098
 31
0.0
  0
LINE
  5
BA6F
330
BA60
100
AcDbEntity
  8
0
100
AcDbLine
 10
18.30699894281664
 20
3.536272079979076
 30
0.0
 11
18.30699894281652
 21
9.5362720799791
 31
0.0
  0
LINE
  5
BA70
330
BA60
100
AcDbEntity
  8
0
100
AcDbLine
 10
-20.28100105718365
 20
17.25427207997835
 30
0.0
 11
-20.28100105718368
 21
18.51299894247835
 31
0.0
  0
LINE
  5
BA71
330
BA60
100
AcDbEntity
  8
0
100
AcDbLine
 10
-6.751001057183536
 20
12.2542720799786
 30
0.0
 11
-15.28100105718355
 21
12.25427207997844
 31
0.0
  0
LINE
  5
BA72
330
BA60
100
AcDbEntity
  8
0
100
AcDbLine
 10
-15.28100105718355
 20
12.25427207997844
 30
0.0
 11
-20.28100105718365
 21
17.25427207997835
 31
0.0
  0
LINE
  5
BA73
330
BA60
100
AcDbEntity
  8
0
100
AcDbLine
 10
13.30651650629838
 20
-14.22827419482375
 30
0.0
 11
18.30651650629839
 21
-19.22827419482373
 31
0.0
  0
ARC
  5
BA74
330
BA60
100
AcDbEntity
  8
0
100
AcDbCircle
 10
-6.751001057183514
 20
10.7542720799786
 30
0.0
 40
1.500000000000001
100
AcDbArc
 50
0.0
 51
90.00000000000087
  0
ARC
  5
BA75
330
BA60
100
AcDbEntity
  8
0
100
AcDbCircle
 10
4.77651650629837
 20
-12.72827419482379
 30
0.0
 40
1.5
100
AcDbArc
 50
180.0
 51
270.0000000000004
  0
LINE
  5
BA76
330
BA60
100
AcDbEntity
  8
0
100
AcDbLine
 10
-5.251001057183493
 20
9.536272079978633
 30
0.0
 11
-5.251001057183515
 21
10.75427207997863
 31
0.0
  0
LINE
  5
BA77
330
BA60
100
AcDbEntity
  8
0
100
AcDbLine
 10
3.276516506298387
 20
-11.5102741948238
 30
0.0
 11
3.276516506298372
 21
-12.7282741948238
 31
0.0
  0
LINE
  5
BA78
330
BA60
100
AcDbEntity
  8
0
100
AcDbLine
 10
-20.28148349370161
 20
-20.48700105732385
 30
0.0
 11
-20.28148349370166
 21
-11.51027419482388
 31
0.0
  0
LINE
  5
BA79
330
BA60
100
AcDbEntity
  8
0
100
AcDbLine
 10
-11.6741035709552
 20
-5.510274194823818
 30
0.0
 11
-20.28148349370168
 21
-5.510274194823856
 31
0.0
  0
LINE
  5
BA7A
330
BA60
100
AcDbEntity
  8
0
100
AcDbLine
 10
-20.28148349370167
 20
-5.510274194823891
 30
0.0
 11
-20.28148349370164
 21
-11.51027419482387
 31
0.0
  0
LINE
  5
BA7B
330
BA60
100
AcDbEntity
  8
0
100
AcDbLine
 10
18.30651650629839
 20
-19.22827419482373
 30
0.0
 11
18.3065165062984
 21
-20.48700105732372
 31
0.0
  0
LINE
  5
BA7C
330
BA60
100
AcDbEntity
  8
0
100
AcDbLine
 10
4.776516506298378
 20
-14.22827419482378
 30
0.0
 11
13.30651650629838
 21
-14.22827419482375
 31
0.0
  0
ARC
  5
BA7D
330
BA60
100
AcDbEntity
  8
0
100
AcDbCircle
 10
3.276516506298356
 20
-2.510274194823766
 30
0.0
 40
3.000000000000015
100
AcDbArc
 50
312.9825802798819
 51
154.0000000000016
  0
LINE
  5
BA7E
330
BA60
100
AcDbEntity
  8
0
100
AcDbLine
 10
5.321844428310429
 20
-4.704957245161118
 30
0.0
 11
7.367172350322475
 21
-6.899640295498441
 31
0.0
  0
ARC
  5
BA7F
330
BA60
100
AcDbEntity
  8
0
100
AcDbCircle
 10
3.276516506298356
 20
-2.510274194823766
 30
0.0
 40
6.000000000000049
100
AcDbArc
 50
312.9825802798819
 51
154.0000000000012
  0
LINE
  5
BA80
330
BA60
100
AcDbEntity
  8
0
100
AcDbLine
 10
-2.116247771496723
 20
0.1199526859105984
 30
0.0
 11
-2.554618918285781
 21
-0.7788413603885789
 31
0.0
  0
LINE
  5
BA81
330
BA60
100
AcDbEntity
  8
0
100
AcDbLine
 10
0.1417632206117542
 20
-2.093954800755764
 30
0.0
 11
0.5801343674008133
 21
-1.195160754456605
 31
0.0
  0
LINE
  5
BA82
330
BA60
100
AcDbEntity
  8
0
100
AcDbLine
 10
-7.296328979195347
 20
2.730955130315944
 30
0.0
 11
-9.34165690120739
 21
4.925638180653263
 31
0.0
  0
ARC
  5
BA83
330
BA60
100
AcDbEntity
  8
0
100
AcDbCircle
 10
-5.251001057183302
 20
0.5362720799786219
 30
0.0
 40
2.999999999999996
100
AcDbArc
 50
132.9825802798819
 51
334.0000000000007
  0
ARC
  5
BA84
330
BA60
100
AcDbEntity
  8
0
100
AcDbCircle
 10
-5.251001057183302
 20
0.5362720799786219
 30
0.0
 40
6.000000000000014
100
AcDbArc
 50
132.9825802798818
 51
334.0000000000009
  0
LINE
  5
BA85
330
BA60
100
AcDbEntity
  8
0
100
AcDbLine
 10
18.30699894281622
 20
24.51299894247866
 30
0.0
 11
13.30699894281619
 21
24.51299894247853
 31
0.0
  0
LINE
  5
BA86
330
BA60
100
AcDbEntity
  8
0
100
AcDbLine
 10
13.30699894281619
 20
24.51299894247853
 30
0.0
 11
13.30699894281625
 21
21.51299894247852
 31
0.0
  0
LINE
  5
BA87
330
BA60
100
AcDbEntity
  8
0
100
AcDbLine
 10
13.30699894281625
 20
21.51299894247852
 30
0.0
 11
18.30699894281626
 21
21.51299894247876
 31
0.0
  0
LINE
  5
BA88
330
BA60
100
AcDbEntity
  8
0
100
AcDbLine
 10
18.30699894281626
 20
21.51299894247876
 30
0.0
 11
18.30699894281622
 21
24.51299894247866
 31
0.0
  0
LINE
  5
BA89
330
BA60
100
AcDbEntity
  8
0
100
AcDbLine
 10
-20.28100105718372
 20
21.51299894247793
 30
0.0
 11
-15.28100105718379
 21
21.51299894247794
 31
0.0
  0
LINE
  5
BA8A
330
BA60
100
AcDbEntity
  8
0
100
AcDbLine
 10
13.30651650629838
 20
-26.4870010573236
 30
0.0
 11
18.30651650629818
 21
-26.48700105732367
 31
0.0
  0
LINE
  5
BA8B
330
BA60
100
AcDbEntity
  8
0
100
AcDbLine
 10
18.30651650629818
 20
-26.48700105732367
 30
0.0
 11
18.30651650629819
 21
-23.48700105732367
 31
0.0
  0
LINE
  5
BA8C
330
BA60
100
AcDbEntity
  8
0
100
AcDbLine
 10
18.30651650629819
 20
-23.48700105732367
 30
0.0
 11
13.30651650629836
 21
-23.4870010573236
 31
0.0
  0
LINE
  5
BA8D
330
BA60
100
AcDbEntity
  8
0
100
AcDbLine
 10
13.30651650629836
 20
-23.4870010573236
 30
0.0
 11
13.30651650629838
 21
-26.4870010573236
 31
0.0
  0
LINE
  5
BA8E
330
BA60
100
AcDbEntity
  8
0
100
AcDbLine
 10
-15.28148349370162
 20
-26.48700105732368
 30
0.0
 11
-15.28148349370164
 21
-23.48700105732366
 31
0.0
  0
LINE
  5
BA8F
330
BA60
100
AcDbEntity
  8
0
100
AcDbLine
 10
-15.28148349370164
 20
-23.48700105732366
 30
0.0
 11
-20.28148349370185
 21
-23.48700105732377
 31
0.0
  0
LINE
  5
BA90
330
BA60
100
AcDbEntity
  8
0
100
AcDbLine
 10
-20.28148349370166
 20
-26.4870010573237
 30
0.0
 11
-15.28148349370162
 21
-26.48700105732368
 31
0.0
  0
LINE
  5
BA91
330
BA60
100
AcDbEntity
  8
0
100
AcDbLine
 10
-20.28148349370185
 20
-23.48700105732377
 30
0.0
 11
-20.28148349370166
 21
-26.4870010573237
 31
0.0
  0
LINE
  5
BA92
330
BA60
100
AcDbEntity
  8
0
100
AcDbLine
 10
-15.28100105718383
 20
24.51299894247795
 30
0.0
 11
-20.2810010571838
 21
24.51299894247794
 31
0.0
  0
LINE
  5
BA93
330
BA60
100
AcDbEntity
  8
0
100
AcDbLine
 10
-20.2810010571838
 20
24.51299894247794
 30
0.0
 11
-20.28100105718372
 21
21.51299894247793
 31
0.0
  0
LINE
  5
BA94
330
BA60
100
AcDbEntity
  8
0
100
AcDbLine
 10
-15.28100105718379
 20
21.51299894247794
 30
0.0
 11
-15.28100105718383
 21
24.51299894247795
 31
0.0
  0
LINE
  5
BA95
330
BA60
100
AcDbEntity
  8
0
100
AcDbLine
 10
13.30699894281625
 20
21.51299894247852
 30
0.0
 11
-15.2810010571838
 21
21.51299894247794
 31
0.0
  0
LINE
  5
BA96
330
BA60
100
AcDbEntity
  8
0
100
AcDbLine
 10
-15.28148349370164
 20
-23.48700105732366
 30
0.0
 11
13.30651650629836
 21
-23.4870010573236
 31
0.0
  0
LINE
  5
BA97
330
BA60
100
AcDbEntity
  8
0
100
AcDbLine
 10
-15.28148349370162
 20
-26.48700105732368
 30
0.0
 11
13.30651650629838
 21
-26.4870010573236
 31
0.0
  0
LINE
  5
BA98
330
BA60
100
AcDbEntity
  8
0
100
AcDbLine
 10
13.30699894281619
 20
24.51299894247853
 30
0.0
 11
-15.28100105718383
 21
24.51299894247795
 31
0.0
  0
LINE
  5
BA99
330
BA60
100
AcDbEntity
  8
0
100
AcDbLine
 10
18.3069989428163
 20
21.51299894247918
 30
0.0
 11
18.30699894281637
 21
18.51299894247916
 31
0.0
  0
LINE
  5
BA9A
330
BA60
100
AcDbEntity
  8
0
100
AcDbLine
 10
-20.28100105718372
 20
21.51299894247839
 30
0.0
 11
-20.28100105718367
 21
18.51299894247835
 31
0.0
  0
LINE
  5
BA9B
330
BA60
100
AcDbEntity
  8
0
100
AcDbLine
 10
-20.28148349370164
 20
-23.48700105732389
 30
0.0
 11
-20.28148349370166
 21
-20.48700105732386
 31
0.0
  0
LINE
  5
BA9C
330
BA60
100
AcDbEntity
  8
0
100
AcDbLine
 10
18.30651650629839
 20
-23.48700105732379
 30
0.0
 11
18.3065165062984
 21
-20.48700105732372
 31
0.0
  0
SPLINE
  5
BA9D
330
BA60
100
AcDbEntity
  8
0
100
AcDbSpline
210
0.0
220
0.0
230
1.0
 70
     8
 71
     3
 72
    14
 73
    10
 74
     0
 42
0.000000001
 43
0.0000000001
 40
-0.7853981633974483
 40
-0.7853981633974483
 40
-0.7853981633974483
 40
-0.7853981633974483
 40
0.4440817313539134
 40
0.4440817313539134
 40
0.4440817313539134
 40
1.569165144395759
 40
1.569165144395759
 40
1.569165144395759
 40
2.356194490192133
 40
2.356194490192133
 40
2.356194490192133
 40
2.356194490192133
 10
5.321844428310324
 20
-4.70495724516124
 30
0.0
 10
5.321844428310324
 20
-4.70495724516124
 30
0.0
 10
5.097732956121618
 20
-4.93349923944597
 30
0.0
 10
4.716499143850613
 20
-5.14208915859847
 30
0.0
 10
4.367636311275741
 20
-5.332967479722768
 30
0.0
 10
3.903809848471157
 20
-5.459145256515918
 30
0.0
 10
3.606732286142975
 20
-5.492045067768572
 30
0.0
 10
3.398917686070087
 20
-5.515059465302877
 30
0.0
 10
3.276516506298251
 20
-5.510274194823836
 30
0.0
 10
3.276516506298188
 20
-5.510274194823836
 30
0.0
  0
SPLINE
  5
BA9E
330
BA60
100
AcDbEntity
  8
0
100
AcDbSpline
210
0.0
220
0.0
230
1.0
 70
     8
 71
     3
 72
    14
 73
    10
 74
     0
 42
0.000000001
 43
0.0000000001
 40
-0.7853981633973792
 40
-0.7853981633973792
 40
-0.7853981633973792
 40
-0.7853981633973792
 40
0.3160919271552693
 40
0.3160919271552693
 40
0.3160919271552693
 40
1.299764733775541
 40
1.299764733775541
 40
1.299764733775541
 40
2.35619449019219
 40
2.35619449019219
 40
2.35619449019219
 40
2.35619449019219
 10
3.276516506297912
 20
-8.510274194823765
 30
0.0
 10
3.276516506297968
 20
-8.510274194823765
 30
0.0
 10
3.779084263782144
 20
-8.534439768188978
 30
0.0
 10
4.500568670146167
 20
-8.384088653944813
 30
0.0
 10
5.144881857371284
 20
-8.249819354751352
 30
0.0
 10
5.91732480281498
 20
-7.9360347450954
 30
0.0
 10
6.461771453089411
 20
-7.594971916807158
 30
0.0
 10
7.046487873285533
 20
-7.228682518354352
 30
0.0
 10
7.367172350322029
 20
-6.899640295498775
 30
0.0
 10
7.367172350322119
 20
-6.899640295498691
 30
0.0
  0
SPLINE
  5
BA9F
330
BA60
100
AcDbEntity
  8
0
100
AcDbSpline
210
0.0
220
0.0
230
1.0
 70
     8
 71
     3
 72
    14
 73
    10
 74
     0
 42
0.000000001
 43
0.0000000001
 40
-2.356194490192285
 40
-2.356194490192285
 40
-2.356194490192285
 40
-2.356194490192285
 40
-1.126714595440928
 40
-1.126714595440928
 40
-1.126714595440928
 40
-0.0016311823990685
 40
-0.0016311823990685
 40
-0.0016311823990685
 40
0.7853981633974372
 40
0.7853981633974372
 40
0.7853981633974372
 40
0.7853981633974372
 10
-7.296328979195378
 20
2.730955130315924
 30
0.0
 10
-7.296328979195358
 20
2.730955130315944
 30
0.0
 10
-7.072217507006655
 20
2.959497124600686
 30
0.0
 10
-6.690983694735662
 20
3.168087043753204
 30
0.0
 10
-6.342120862160792
 20
3.35896536487752
 30
0.0
 10
-5.878294399356227
 20
3.485143141670685
 30
0.0
 10
-5.581216837028071
 20
3.51804295292335
 30
0.0
 10
-5.373402236955167
 20
3.54105735045767
 30
0.0
 10
-5.251001057183355
 20
3.536272079978627
 30
0.0
 10
-5.251001057183353
 20
3.536272079978626
 30
0.0
  0
SPLINE
  5
BAA0
330
BA60
100
AcDbEntity
  8
0
100
AcDbSpline
210
0.0
220
0.0
230
1.0
 70
     8
 71
     3
 72
    14
 73
    10
 74
     0
 42
0.000000001
 43
0.0000000001
 40
-0.7853981633974366
 40
-0.7853981633974366
 40
-0.7853981633974366
 40
-0.7853981633974366
 40
0.3160919271552178
 40
0.3160919271552178
 40
0.3160919271552178
 40
1.299764733775491
 40
1.299764733775491
 40
1.299764733775491
 40
2.356194490192299
 40
2.356194490192299
 40
2.356194490192299
 40
2.356194490192299
 10
-5.25100105718341
 20
6.536272079978666
 30
0.0
 10
-5.251001057183422
 20
6.536272079978666
 30
0.0
 10
-5.753568814667557
 20
6.560437653343839
 30
0.0
 10
-6.475053221031559
 20
6.410086539099624
 30
0.0
 10
-7.119366408256646
 20
6.275817239906126
 30
0.0
 10
-7.891809353700336
 20
5.962032630250116
 30
0.0
 10
-8.436256003974754
 20
5.62096980196182
 30
0.0
 10
-9.020972424170954
 20
5.254680403508903
 30
0.0
 10
-9.34165690120745
 20
4.925638180653254
 30
0.0
 10
-9.341656901207478
 20
4.925638180653227
 30
0.0
  0
ENDBLK
  5
BA62
330
BA60
100
AcDbEntity
  8
0
100
AcDbBlockEnd
  0
BLOCK
  5
BAA2
330
BAA1
100
AcDbEntity
  8
0
100
AcDbBlockBegin
  2
PBWS45-Bottom
 70
     0
 10
0.0
 20
0.0
 30
0.0
  3
PBWS45-Bottom
  1

  0
LINE
  5
BAA4
330
BAA1
100
AcDbEntity
  8
0
100
AcDbLine
 10
-5.251001057183497
 20
-9.536272079978635
 30
0.0
 11
-5.251001057183437
 21
-6.536272079978616
 31
0.0
  0
LINE
  5
BAA5
330
BAA1
100
AcDbEntity
  8
0
100
AcDbLine
 10
3.276516506298366
 20
11.51027419482379
 30
0.0
 11
3.276516506298359
 21
8.510274194823782
 31
0.0
  0
LINE
  5
BAA6
330
BAA1
100
AcDbEntity
  8
0
100
AcDbLine
 10
-5.251001057183315
 20
-6.536272079978667
 30
0.0
 11
6.748998942816712
 21
-6.536272079978902
 31
0.0
  0
LINE
  5
BAA7
330
BAA1
100
AcDbEntity
  8
0
100
AcDbLine
 10
-5.251001057183268
 20
-3.536272079978656
 30
0.0
 11
6.748998942816768
 21
-3.536272079978911
 31
0.0
  0
LINE
  5
BAA8
330
BAA1
100
AcDbEntity
  8
0
100
AcDbLine
 10
6.748998942816766
 20
-3.536272079978911
 30
0.0
 11
6.748998942816712
 21
-6.536272079978902
 31
0.0
  0
LINE
  5
BAA9
330
BAA1
100
AcDbEntity
  8
0
100
AcDbLine
 10
18.30699894281658
 20
-6.536272079979111
 30
0.0
 11
6.748998942816606
 21
-6.536272079979066
 31
0.0
  0
LINE
  5
BAAA
330
BAA1
100
AcDbEntity
  8
0
100
AcDbLine
 10
6.748998942816677
 20
-3.536272079978808
 30
0.0
 11
18.30699894281666
 21
-3.536272079979098
 31
0.0
  0
LINE
  5
BAAB
330
BAA1
100
AcDbEntity
  8
0
100
AcDbLine
 10
18.30699894281666
 20
-3.536272079979098
 30
0.0
 11
18.30699894281658
 21
-6.536272079979111
 31
0.0
  0
LINE
  5
BAAC
330
BAA1
100
AcDbEntity
  8
0
100
AcDbLine
 10
3.276516506298462
 20
8.5102741948238
 30
0.0
 11
-8.723483493701575
 21
8.510274194823825
 31
0.0
  0
LINE
  5
BAAD
330
BAA1
100
AcDbEntity
  8
0
100
AcDbLine
 10
3.276516506298462
 20
5.510274194823793
 30
0.0
 11
-8.723483493701584
 21
5.510274194823808
 31
0.0
  0
LINE
  5
BAAE
330
BAA1
100
AcDbEntity
  8
0
100
AcDbLine
 10
-8.723483493701582
 20
5.510274194823808
 30
0.0
 11
-8.723483493701573
 21
8.510274194823825
 31
0.0
  0
LINE
  5
BAAF
330
BAA1
100
AcDbEntity
  8
0
100
AcDbLine
 10
-20.28148349370166
 20
8.510274194823864
 30
0.0
 11
-8.723483493701634
 21
8.510274194823624
 31
0.0
  0
LINE
  5
BAB0
330
BAA1
100
AcDbEntity
  8
0
100
AcDbLine
 10
-8.723483493701637
 20
5.510274194823631
 30
0.0
 11
-20.28148349370168
 21
5.510274194823856
 31
0.0
  0
LINE
  5
BAB1
330
BAA1
100
AcDbEntity
  8
0
100
AcDbLine
 10
-20.28148349370168
 20
5.510274194823856
 30
0.0
 11
-20.28148349370166
 21
8.510274194823864
 31
0.0
  0
LINE
  5
BAB2
330
BAA1
100
AcDbEntity
  8
0
100
AcDbLine
 10
-20.28148349370166
 20
8.5102741948239
 30
0.0
 11
-20.28148349370164
 21
11.51027419482387
 31
0.0
  0
LINE
  5
BAB3
330
BAA1
100
AcDbEntity
  8
0
100
AcDbLine
 10
-20.28148349370166
 20
11.51027419482387
 30
0.0
 11
-20.28148349370161
 21
20.48700105732385
 31
0.0
  0
LINE
  5
BAB4
330
BAA1
100
AcDbEntity
  8
0
100
AcDbLine
 10
18.30699894281658
 20
-6.536272079979081
 30
0.0
 11
18.30699894281652
 21
-9.536272079979116
 31
0.0
  0
LINE
  5
BAB5
330
BAA1
100
AcDbEntity
  8
0
100
AcDbLine
 10
18.30699894281653
 20
-9.536272079979116
 30
0.0
 11
18.30699894281633
 21
-18.51299894247914
 31
0.0
  0
LINE
  5
BAB6
330
BAA1
100
AcDbEntity
  8
0
100
AcDbLine
 10
18.30651650629839
 20
19.22827419482373
 30
0.0
 11
13.30651650629838
 21
14.22827419482375
 31
0.0
  0
LINE
  5
BAB7
330
BAA1
100
AcDbEntity
  8
0
100
AcDbLine
 10
-20.28100105718364
 20
-17.25427207997835
 30
0.0
 11
-15.28100105718354
 21
-12.25427207997844
 31
0.0
  0
LINE
  5
BAB8
330
BAA1
100
AcDbEntity
  8
0
100
AcDbLine
 10
3.276516506298385
 20
12.72827419482379
 30
0.0
 11
3.276516506298376
 21
11.51027419482379
 31
0.0
  0
LINE
  5
BAB9
330
BAA1
100
AcDbEntity
  8
0
100
AcDbLine
 10
-5.251001057183519
 20
-10.75427207997864
 30
0.0
 11
-5.25100105718349
 21
-9.536272079978633
 31
0.0
  0
ARC
  5
BABA
330
BAA1
100
AcDbEntity
  8
0
100
AcDbCircle
 10
4.776516506298378
 20
12.72827419482378
 30
0.0
 40
1.5
100
AcDbArc
 50
89.99999999999987
 51
180.0
  0
ARC
  5
BABB
330
BAA1
100
AcDbEntity
  8
0
100
AcDbCircle
 10
-6.751001057183508
 20
-10.75427207997861
 30
0.0
 40
1.500000000000001
100
AcDbArc
 50
269.9999999999988
 51
0.0
  0
LINE
  5
BABC
330
BAA1
100
AcDbEntity
  8
0
100
AcDbLine
 10
4.776516506298383
 20
14.22827419482378
 30
0.0
 11
13.30651650629838
 21
14.22827419482375
 31
0.0
  0
LINE
  5
BABD
330
BAA1
100
AcDbEntity
  8
0
100
AcDbLine
 10
18.3065165062984
 20
20.48700105732371
 30
0.0
 11
18.30651650629839
 21
19.22827419482373
 31
0.0
  0
LINE
  5
BABE
330
BAA1
100
AcDbEntity
  8
0
100
AcDbLine
 10
-6.751001057183538
 20
-12.25427207997861
 30
0.0
 11
-15.28100105718354
 21
-12.25427207997844
 31
0.0
  0
LINE
  5
BABF
330
BAA1
100
AcDbEntity
  8
0
100
AcDbLine
 10
-20.28100105718368
 20
-18.51299894247835
 30
0.0
 11
-20.28100105718364
 21
-17.25427207997835
 31
0.0
  0
LINE
  5
BAC0
330
BAA1
100
AcDbEntity
  8
0
100
AcDbLine
 10
18.3069989428162
 20
-24.51299894247917
 30
0.0
 11
-20.28100105718378
 21
-24.5129989424784
 31
0.0
  0
LINE
  5
BAC1
330
BAA1
100
AcDbEntity
  8
0
100
AcDbLine
 10
18.30699894281623
 20
-24.51299894247918
 30
0.0
 11
18.30699894281635
 21
-18.51299894247915
 31
0.0
  0
LINE
  5
BAC2
330
BAA1
100
AcDbEntity
  8
0
100
AcDbLine
 10
-20.28100105718366
 20
-18.51299894247836
 30
0.0
 11
-20.28100105718378
 21
-24.51299894247839
 31
0.0
  0
LINE
  5
BAC3
330
BAA1
100
AcDbEntity
  8
0
100
AcDbLine
 10
-20.28148349370157
 20
26.4870010573239
 30
0.0
 11
18.30651650629841
 21
26.4870010573238
 31
0.0
  0
LINE
  5
BAC4
330
BAA1
100
AcDbEntity
  8
0
100
AcDbLine
 10
-20.28148349370164
 20
26.4870010573239
 30
0.0
 11
-20.28148349370164
 21
20.48700105732385
 31
0.0
  0
LINE
  5
BAC5
330
BAA1
100
AcDbEntity
  8
0
100
AcDbLine
 10
18.3065165062984
 20
20.48700105732372
 30
0.0
 11
18.3065165062984
 21
26.48700105732379
 31
0.0
  0
LINE
  5
BAC6
330
BAA1
100
AcDbEntity
  8
0
100
AcDbLine
 10
0.1417632206118715
 20
2.093954800755738
 30
0.0
 11
0.580134367400924
 21
1.195160754456573
 31
0.0
  0
LINE
  5
BAC7
330
BAA1
100
AcDbEntity
  8
0
100
AcDbLine
 10
-2.554618918285671
 20
0.7788413603885659
 30
0.0
 11
-2.116247771496595
 21
-0.119952685910627
 31
0.0
  0
ARC
  5
BAC8
330
BAA1
100
AcDbEntity
  8
0
100
AcDbCircle
 10
-5.251001057183182
 20
-0.5362720799786503
 30
0.0
 40
6.000000000000012
100
AcDbArc
 50
25.99999999999915
 51
269.9999999999988
  0
ARC
  5
BAC9
330
BAA1
100
AcDbEntity
  8
0
100
AcDbCircle
 10
-5.251001057183182
 20
-0.5362720799786503
 30
0.0
 40
3.000000000000011
100
AcDbArc
 50
25.99999999999965
 51
269.9999999999984
  0
ARC
  5
BACA
330
BAA1
100
AcDbEntity
  8
0
100
AcDbCircle
 10
3.27651650629845
 20
2.510274194823788
 30
0.0
 40
6.000000000000018
100
AcDbArc
 50
205.9999999999994
 51
89.99999999999992
  0
ARC
  5
BACB
330
BAA1
100
AcDbEntity
  8
0
100
AcDbCircle
 10
3.27651650629845
 20
2.510274194823788
 30
0.0
 40
3.000000000000017
100
AcDbArc
 50
205.9999999999995
 51
89.99999999999976
  0
ENDBLK
  5
BAA3
330
BAA1
100
AcDbEntity
  8
0
100
AcDbBlockEnd
  0
BLOCK
  5
BACD
330
BACC
100
AcDbEntity
  8
0
100
AcDbBlockBegin
  2
PBWS45-ISO
 70
     0
 10
0.0
 20
0.0
 30
0.0
  3
PBWS45-ISO
  1

  0
LINE
  5
BACF
330
BACC
100
AcDbEntity
  8
0
100
AcDbLine
 10
10.79010607850104
 20
-121.5150906256339
 30
0.0
 11
10.79010607850108
 21
-0.7250359329286838
 31
0.0
  0
ELLIPSE
  5
BAD0
330
BACC
100
AcDbEntity
  8
0
100
AcDbEllipse
 10
8.527364378704021
 20
36.08694215930164
 30
0.0
 11
-1.787816710194956
 21
6.67222279706949
 31
0.0
210
0.0
220
0.0
230
0.9999999999999998
 40
0.5176380902050527
 41
2.511757249801116
 42
2.700305999688673
  0
LINE
  5
BAD1
330
BACC
100
AcDbEntity
  8
0
100
AcDbLine
 10
7.937815982856911
 20
-122.31780991389
 30
0.0
 11
8.66878573494144
 21
-122.7398354970254
 31
0.0
  0
LINE
  5
BAD2
330
BACC
100
AcDbEntity
  8
0
100
AcDbLine
 10
8.668785734941303
 20
-1.949780804320413
 30
0.0
 11
8.66878573494144
 21
-122.7398354970254
 31
0.0
  0
LINE
  5
BAD3
330
BACC
100
AcDbEntity
  8
0
100
AcDbLine
 10
8.66878573494144
 20
-122.7398354970254
 30
0.0
 11
10.79010607850104
 21
-121.5150906256339
 31
0.0
  0
LINE
  5
BAD4
330
BACC
100
AcDbEntity
  8
0
100
AcDbLine
 10
18.9628462554552
 20
30.48227988671002
 30
0.0
 11
10.79010607850108
 21
-0.7250359329286927
 31
0.0
  0
LINE
  5
BAD5
330
BACC
100
AcDbEntity
  8
0
100
AcDbLine
 10
8.668785734941303
 20
-1.949780804320413
 30
0.0
 11
16.84152591189561
 21
29.25753501531838
 31
0.0
  0
LINE
  5
BAD6
330
BACC
100
AcDbEntity
  8
0
100
AcDbLine
 10
16.84152591189561
 20
29.25753501531838
 30
0.0
 11
18.9628462554552
 21
30.48227988671002
 31
0.0
  0
LINE
  5
BAD7
330
BACC
100
AcDbEntity
  8
0
100
AcDbLine
 10
10.79010607850108
 20
-0.7250359329286927
 30
0.0
 11
8.668785734941303
 21
-1.949780804320413
 31
0.0
  0
ELLIPSE
  5
BAD8
330
BACC
100
AcDbEntity
  8
0
100
AcDbEllipse
 10
11.46229598145899
 20
33.17973144461645
 30
0.0
 11
-0.8337956473795047
 21
0.5520732002289103
 31
0.0
210
0.0
220
0.0
230
1.0
 40
0.7846600913512934
 41
0.0779983288728259
 42
1.198023075403817
  0
SPLINE
  5
BAD9
330
BACC
100
AcDbEntity
  8
0
100
AcDbSpline
210
0.0
220
0.0
230
1.0
 70
     8
 71
     3
 72
    18
 73
    14
 74
     0
 42
0.000000001
 43
0.0000000001
 40
-0.806854579685374
 40
-0.806854579685374
 40
-0.806854579685374
 40
-0.806854579685374
 40
-0.6777094229505435
 40
-0.6777094229505435
 40
-0.4996954415939492
 40
-0.4996954415939492
 40
-0.3131469925253245
 40
-0.3131469925253245
 40
-0.1900102218698265
 40
-0.1900102218698265
 40
-0.0730808545653179
 40
-0.0730808545653179
 40
0.0
 40
0.0
 40
0.0
 40
0.0
 10
10.75518920027246
 20
32.77148315415256
 30
0.0
 10
10.90252000213427
 20
33.05551173949881
 30
0.0
 10
11.04431789325481
 20
33.41807195534591
 30
0.0
 10
11.41922572886982
 20
34.37944603704676
 30
0.0
 10
11.66881706654039
 20
35.01198327949194
 30
0.0
 10
12.29076014615305
 20
36.30322754929094
 30
0.0
 10
12.66908227537457
 20
36.96261140777417
 30
0.0
 10
13.35192112629917
 20
37.9737299641974
 30
0.0
 10
13.63679470601834
 20
38.35462904987799
 30
0.0
 10
14.17494263009265
 20
39.04126588681047
 30
0.0
 10
14.42877629016871
 20
39.34969751123643
 30
0.0
 10
14.78011832124684
 20
39.8038673653572
 30
0.0
 10
14.90032252451959
 20
39.96738704723124
 30
0.0
 10
14.9978298873917
 20
40.11995238250222
 30
0.0
  0
ELLIPSE
  5
BADA
330
BACC
100
AcDbEntity
  8
0
100
AcDbEllipse
 10
14.9978298873917
 20
39.30345580157451
 30
0.0
 11
-0.8950072398365628
 21
0.4460516120810893
 31
0.0
210
0.0
220
0.0
230
1.0
 40
0.7846600913512844
 41
5.085162231775792
 42
6.205186978306791
  0
ELLIPSE
  5
BADB
330
BACC
100
AcDbEntity
  8
0
100
AcDbEllipse
 10
9.375892516127859
 20
32.61701233473215
 30
0.0
 11
-0.4440557184830192
 21
-0.8959991734831699
 31
0.0
210
0.0
220
0.0
230
1.0
 40
0.6166825867284907
 41
4.673210178914489
 42
5.459858343614031
  0
ELLIPSE
  5
BADC
330
BACC
100
AcDbEntity
  8
0
100
AcDbEllipse
 10
8.527364378704021
 20
36.90343874022937
 30
0.0
 11
1.300230334687501
 21
-4.852525670595926
 31
0.0
210
0.0
220
0.0
230
0.9999999999999998
 40
0.5176380902050526
 41
5.855547854923097
 42
6.712520614354336
  0
ELLIPSE
  5
BADD
330
BACC
100
AcDbEntity
  8
0
100
AcDbEllipse
 10
8.527364378704021
 20
36.90343874022937
 30
0.0
 11
1.300230334687501
 21
-4.852525670595926
 31
0.0
210
0.0
220
0.0
230
0.9999999999999998
 40
0.5176380902050526
 41
5.595550581745619
 42
5.855547854923095
  0
ELLIPSE
  5
BADE
330
BACC
100
AcDbEntity
  8
0
100
AcDbEllipse
 10
10.54218024425476
 20
41.87592632245418
 30
0.0
 11
-0.1638799131657014
 21
0.9864802958299865
 31
0.0
210
0.0
220
0.0
230
1.0
 40
0.2257768980813975
 41
4.528811736611205
 42
5.648836483142193
  0
SPLINE
  5
BADF
330
BACC
100
AcDbEntity
  8
0
100
AcDbSpline
210
0.0
220
0.0
230
1.0
 70
     8
 71
     3
 72
    12
 73
     8
 74
     0
 42
0.000000001
 43
0.0000000001
 40
-0.8068546120429209
 40
-0.8068546120429209
 40
-0.8068546120429209
 40
-0.8068546120429209
 40
-0.6784472535904649
 40
-0.6784472535904649
 40
-0.5004982556602922
 40
-0.5004982556602922
 40
-0.3929647368484768
 40
-0.3929647368484768
 40
-0.3929647368484768
 40
-0.3929647368484768
 10
10.54218024425476
 20
42.6924229033819
 30
0.0
 10
10.07787585425626
 20
42.59350769314689
 30
0.0
 10
9.62915719927704
 20
42.41112381851087
 30
0.0
 10
8.637930683920885
 20
41.81002123199275
 30
0.0
 10
8.124413667957124
 20
41.330669389524
 30
0.0
 10
7.418228710196923
 20
40.44648863299961
 30
0.0
 10
7.178082852330259
 20
40.08734672186671
 30
0.0
 10
6.969032703207234
 20
39.71145362896752
 30
0.0
  0
ELLIPSE
  5
BAE0
330
BACC
100
AcDbEntity
  8
0
100
AcDbEllipse
 10
10.30553897175599
 20
39.98332748012359
 30
0.0
 11
-4.852525670595835
 21
-1.300230334687763
 31
0.0
210
0.0
220
0.0
230
0.9999999999999998
 40
0.5176380902050473
 41
2.712257346414505
 42
4.526244578888833
  0
SPLINE
  5
BAE1
330
BACC
100
AcDbEntity
  8
0
100
AcDbSpline
210
0.0
220
0.0
230
1.0
 70
     8
 71
     3
 72
    20
 73
    16
 74
     0
 42
0.000000001
 43
0.0000000001
 40
0.0252297526444592
 40
0.0252297526444592
 40
0.0252297526444592
 40
0.0252297526444592
 40
0.0849947518120972
 40
0.0849947518120972
 40
0.1677016658692756
 40
0.1677016658692756
 40
0.2862958373751594
 40
0.2862958373751594
 40
0.4375746863365525
 40
0.4375746863365525
 40
0.5888535352979454
 40
0.5888535352979454
 40
0.726101749102365
 40
0.726101749102365
 40
0.781623997451424
 40
0.781623997451424
 40
0.781623997451424
 40
0.781623997451424
 10
14.05475548903317
 20
39.66066439569642
 30
0.0
 10
14.00917034851711
 20
39.58170861625244
 30
0.0
 10
13.94539444957438
 20
39.48347843189918
 30
0.0
 10
13.76040945012965
 20
39.21877056439173
 30
0.0
 10
13.62703627432696
 20
39.04054433240041
 30
0.0
 10
13.2719466220015
 20
38.56659866894457
 30
0.0
 10
13.03788935778431
 20
38.2530261596152
 30
0.0
 10
12.51154252347185
 20
37.48927863744317
 30
0.0
 10
12.22153487469107
 20
37.02389364856043
 30
0.0
 10
11.70546159815579
 20
36.07632870731882
 30
0.0
 10
11.47883975490686
 20
35.59326953259288
 30
0.0
 10
11.10797973471676
 20
34.74593676114002
 30
0.0
 10
10.9556044961354
 20
34.37373283439797
 30
0.0
 10
10.77269723260851
 20
33.98644875369258
 30
0.0
 10
10.72375338704807
 20
33.89119951493933
 30
0.0
 10
10.68140706532004
 20
33.81785353419273
 30
0.0
  0
SPLINE
  5
BAE2
330
BACC
100
AcDbEntity
  8
0
100
AcDbSpline
210
0.0
220
0.0
230
1.0
 70
     8
 71
     3
 72
     8
 73
     4
 74
     0
 42
0.000000001
 43
0.0000000001
 40
0.0
 40
0.0
 40
0.0
 40
0.0
 40
0.0252297526444592
 40
0.0252297526444592
 40
0.0252297526444592
 40
0.0252297526444592
 10
14.13281542024118
 20
39.80287213703677
 30
0.0
 10
14.10886945887315
 20
39.75660958953756
 30
0.0
 10
14.08277126335116
 20
39.70920015297902
 30
0.0
 10
14.05474527301866
 20
39.66066096837349
 30
0.0
  0
SPLINE
  5
BAE3
330
BACC
100
AcDbEntity
  8
0
100
AcDbSpline
210
0.0
220
0.0
230
1.0
 70
     8
 71
     3
 72
     8
 73
     4
 74
     0
 42
0.000000001
 43
0.0000000001
 40
0.781623997451424
 40
0.781623997451424
 40
0.781623997451424
 40
0.781623997451424
 40
0.806854579685374
 40
0.806854579685374
 40
0.806854579685374
 40
0.806854579685374
 10
10.68141631191097
 20
33.81787785011526
 30
0.0
 10
10.65338740724663
 20
33.76933070791115
 30
0.0
 10
10.62537399869229
 20
33.72301830716781
 30
0.0
 10
10.59728151430848
 20
33.67914778007871
 30
0.0
  0
ELLIPSE
  5
BAE4
330
BACC
100
AcDbEntity
  8
0
100
AcDbEllipse
 10
9.234471159890567
 20
37.31168703069324
 30
0.0
 11
0.1256039641371263
 21
-4.499590091588689
 31
0.0
210
0.0
220
0.0
230
1.0
 40
0.4835611851232653
 41
6.044065798986691
 42
6.901038558417935
  0
ELLIPSE
  5
BAE5
330
BACC
100
AcDbEntity
  8
0
100
AcDbEllipse
 10
9.234471159890567
 20
37.31168703069324
 30
0.0
 11
0.1256039641371263
 21
-4.499590091588689
 31
0.0
210
0.0
220
0.0
230
1.0
 40
0.4835611851232653
 41
5.588323596500446
 42
6.044065798986689
  0
SPLINE
  5
BAE6
330
BACC
100
AcDbEntity
  8
0
100
AcDbSpline
210
0.0
220
0.0
230
1.0
 70
     8
 71
     3
 72
    12
 73
     8
 74
     0
 42
0.000000001
 43
0.0000000001
 40
0.3362264041805438
 40
0.3362264041805438
 40
0.3362264041805438
 40
0.3362264041805438
 40
0.5004982556602922
 40
0.5004982556602922
 40
0.6784472535904649
 40
0.6784472535904649
 40
0.8068546120429209
 40
0.8068546120429209
 40
0.8068546120429209
 40
0.8068546120429209
 10
7.779274251111968
 20
38.61512704963473
 30
0.0
 10
8.012113887035985
 20
39.10686935025501
 30
0.0
 10
8.298164684729657
 20
39.58292009096926
 30
0.0
 10
8.972474982579484
 20
40.48415299656325
 30
0.0
 10
9.369080101345694
 20
40.90169878270566
 30
0.0
 10
10.11623428859688
 20
41.44815201322578
 30
0.0
 10
10.44947104705384
 20
41.62363410675903
 30
0.0
 10
10.79107818788848
 20
41.73222502769651
 30
0.0
  0
ELLIPSE
  5
BAE7
330
BACC
100
AcDbEntity
  8
0
100
AcDbEllipse
 10
10.305538971756
 20
39.16683089919586
 30
0.0
 11
3.959561308001063
 21
2.141018822035619
 31
0.0
210
0.0
220
0.0
230
1.0
 40
0.4835611851232638
 41
5.665332055941226
 42
7.47931928841527
  0
LINE
  5
BAE8
330
BACC
100
AcDbEntity
  8
0
100
AcDbLine
 10
4.426145047821774
 20
46.22351747041555
 30
0.0
 11
10.54218024425475
 21
42.6924229033819
 31
0.0
  0
ELLIPSE
  5
BAE9
330
BACC
100
AcDbEntity
  8
0
100
AcDbEllipse
 10
4.426145047821774
 20
41.32453798484918
 30
0.0
 11
2.99999999999992
 21
5.196152422706698
 31
0.0
210
0.0
220
0.0
230
1.0
 40
0.5773502691896152
 41
0.7853981633974385
 42
1.915351184662496
  0
LINE
  5
BAEA
330
BACC
100
AcDbEntity
  8
0
100
AcDbLine
 10
14.99782988739171
 20
40.11995238250221
 30
0.0
 11
21.0841665990148
 21
36.60600424366807
 31
0.0
  0
ELLIPSE
  5
BAEB
330
BACC
100
AcDbEntity
  8
0
100
AcDbEllipse
 10
-4.426145047822084
 20
29.25097698080034
 30
0.0
 11
2.999999999999997
 21
5.196152422706656
 31
0.0
210
0.0
220
0.0
230
1.0
 40
0.5773502691896244
 41
5.497787143782146
 42
6.534701568644576
  0
LINE
  5
BAEC
330
BACC
100
AcDbEntity
  8
0
100
AcDbLine
 10
-2.267154907481098
 20
34.93268667237226
 30
0.0
 11
-1.426145047822087
 21
34.447129403507
 31
0.0
  0
LINE
  5
BAED
330
BACC
100
AcDbEntity
  8
0
100
AcDbLine
 10
27.43167103634791
 20
40.27073763924483
 30
0.0
 11
21.0841665990148
 21
36.60600424366807
 31
0.0
  0
LINE
  5
BAEE
330
BACC
100
AcDbEntity
  8
0
100
AcDbLine
 10
10.75518920027246
 20
32.77148315415256
 30
0.0
 11
16.84152591189561
 21
29.25753501531838
 31
0.0
  0
ELLIPSE
  5
BAEF
330
BACC
100
AcDbEntity
  8
0
100
AcDbEllipse
 10
21.0841665990148
 20
31.70702475810168
 30
0.0
 11
-2.999999999999606
 21
-5.196152422706887
 31
0.0
210
0.0
220
0.0
230
1.0
 40
0.577350269189614
 41
3.926990816986988
 42
5.497787143781899
  0
ELLIPSE
  5
BAF0
330
BACC
100
AcDbEntity
  8
0
100
AcDbEllipse
 10
21.0841665990148
 20
31.70702475810168
 30
0.0
 11
1.500000000000115
 21
2.598076211353271
 31
0.0
210
0.0
220
0.0
230
0.9999999999999998
 40
0.5773502691896137
 41
0.7853981633976721
 42
2.356194490192599
  0
LINE
  5
BAF1
330
BACC
100
AcDbEntity
  8
0
100
AcDbLine
 10
8.668785734941325
 20
29.65863984015989
 30
0.0
 11
8.668785734941303
 21
-1.949780804320413
 31
0.0
  0
LINE
  5
BAF2
330
BACC
100
AcDbEntity
  8
0
100
AcDbLine
 10
8.668785734941321
 20
32.20876404426828
 30
0.0
 11
8.668785734941325
 21
29.65863984015989
 31
0.0
  0
LINE
  5
BAF3
330
BACC
100
AcDbEntity
  8
0
100
AcDbLine
 10
21.08416659901482
 20
34.15651450088489
 30
0.0
 11
27.43167103634789
 21
37.82124789646164
 31
0.0
  0
LINE
  5
BAF4
330
BACC
100
AcDbEntity
  8
0
100
AcDbLine
 10
0.1458345639208347
 20
56.02422267166404
 30
0.0
 11
27.43167103634791
 21
40.27073763924483
 31
0.0
  0
LINE
  5
BAF5
330
BACC
100
AcDbEntity
  8
0
100
AcDbLine
 10
-0.1458345639213876
 20
24.34925126511821
 30
0.0
 11
-2.267154907481074
 21
25.57399613650982
 31
0.0
  0
LINE
  5
BAF6
330
BACC
100
AcDbEntity
  8
0
100
AcDbLine
 10
29.55299137990749
 20
43.94497225341954
 30
0.0
 11
31.6743117234671
 21
45.16971712481116
 31
0.0
  0
LINE
  5
BAF7
330
BACC
100
AcDbEntity
  8
0
100
AcDbLine
 10
2.267154907480464
 20
59.69845728583877
 30
0.0
 11
29.55299137990749
 21
43.94497225341954
 31
0.0
  0
LINE
  5
BAF8
330
BACC
100
AcDbEntity
  8
0
100
AcDbLine
 10
27.43167103634789
 20
37.82124789646164
 30
0.0
 11
27.43167103634791
 21
40.27073763924483
 31
0.0
  0
ELLIPSE
  5
BAF9
330
BACC
100
AcDbEntity
  8
0
100
AcDbEllipse
 10
27.43167103634795
 20
42.72022738202791
 30
0.0
 11
2.999999999999593
 21
5.196152422706852
 31
0.0
210
0.0
220
0.0
230
0.9999999999999998
 40
0.5773502691896137
 41
3.926990816986982
 42
5.49778714378189
  0
ELLIPSE
  5
BAFA
330
BACC
100
AcDbEntity
  8
0
100
AcDbEllipse
 10
27.43167103634796
 20
42.72022738202791
 30
0.0
 11
-1.500000000000089
 21
-2.598076211353236
 31
0.0
210
0.0
220
0.0
230
1.0
 40
0.5773502691896125
 41
0.7853981633976624
 42
2.35619449019258
  0
ELLIPSE
  5
BAFB
330
BACC
100
AcDbEntity
  8
0
100
AcDbEllipse
 10
0.1458345639208747
 20
58.47371241444713
 30
0.0
 11
-1.500000000000101
 21
-2.59807621135324
 31
0.0
210
0.0
220
0.0
230
1.0
 40
0.5773502691896146
 41
0.7853981633976641
 42
2.356194490192589
  0
LINE
  5
BAFC
330
BACC
100
AcDbEntity
  8
0
100
AcDbLine
 10
-31.67431172346728
 20
40.10273629753759
 30
0.0
 11
-4.388475251040722
 21
24.34925126511815
 31
0.0
  0
ELLIPSE
  5
BAFD
330
BACC
100
AcDbEntity
  8
0
100
AcDbEllipse
 10
-27.43167103634809
 20
42.55222604032078
 30
0.0
 11
-2.999999999999937
 21
-5.196152422706611
 31
0.0
210
0.0
220
0.0
230
0.9999999999999998
 40
0.5773502691896243
 41
5.497787143782137
 42
6.283185307179591
  0
ELLIPSE
  5
BAFE
330
BACC
100
AcDbEntity
  8
0
100
AcDbEllipse
 10
-0.1458345639214409
 20
26.79874100790134
 30
0.0
 11
-2.999999999999988
 21
-5.19615242270665
 31
0.0
210
0.0
220
0.0
230
1.0
 40
0.5773502691896259
 41
5.497787143782135
 42
7.068583470577044
  0
LINE
  5
BAFF
330
BACC
100
AcDbEntity
  8
0
100
AcDbLine
 10
-4.388475251040717
 20
24.34925126511815
 30
0.0
 11
-2.267154907481085
 21
25.57399613650974
 31
0.0
  0
ELLIPSE
  5
BB00
330
BACC
100
AcDbEntity
  8
0
100
AcDbEllipse
 10
-0.145834563921432
 20
26.79874100790133
 30
0.0
 11
-1.500000000000003
 21
-2.598076211353326
 31
0.0
210
0.0
220
0.0
230
1.0
 40
0.5773502691896273
 41
5.497787143782137
 42
7.068583470577054
  0
LINE
  5
BB01
330
BACC
100
AcDbEntity
  8
0
100
AcDbLine
 10
-3.145834563921281
 20
21.60258858519491
 30
0.0
 11
-30.43167103634794
 21
37.35607361761437
 31
0.0
  0
LINE
  5
BB02
330
BACC
100
AcDbEntity
  8
0
100
AcDbLine
 10
-0.7442197362145775
 20
55.51034958188747
 30
0.0
 11
0.1458345639208347
 21
56.02422267166404
 31
0.0
  0
LINE
  5
BB03
330
BACC
100
AcDbEntity
  8
0
100
AcDbLine
 10
5.287401107306941
 20
47.94550875959214
 30
0.0
 11
-0.744219736214431
 21
51.42786667724884
 31
0.0
  0
LINE
  5
BB04
330
BACC
100
AcDbEntity
  8
0
100
AcDbLine
 10
4.231221095618504
 20
46.10580483086994
 30
0.0
 11
-0.7442197362144332
 21
48.97837693446563
 31
0.0
  0
LINE
  5
BB05
330
BACC
100
AcDbEntity
  8
0
100
AcDbLine
 10
-0.744219736214431
 20
51.42786667724884
 30
0.0
 11
-0.7442197362145775
 21
55.51034958188747
 31
0.0
  0
LINE
  5
BB06
330
BACC
100
AcDbEntity
  8
0
100
AcDbLine
 10
0.7442197362139913
 20
28.94560725953341
 30
0.0
 11
0.7442197362140091
 21
24.86312435489479
 31
0.0
  0
LINE
  5
BB07
330
BACC
100
AcDbEntity
  8
0
100
AcDbLine
 10
0.7442197362140091
 20
24.86312435489479
 30
0.0
 11
0.7442197362140069
 21
22.41363461211157
 31
0.0
  0
LINE
  5
BB08
330
BACC
100
AcDbEntity
  8
0
100
AcDbLine
 10
-0.7442197362144332
 20
48.97837693446563
 30
0.0
 11
-0.744219736214431
 21
51.42786667724884
 31
0.0
  0
ELLIPSE
  5
BB09
330
BACC
100
AcDbEntity
  8
0
100
AcDbEllipse
 10
4.226740935527134
 20
47.33313632389633
 30
0.0
 11
1.500000000000001
 21
0.0000000000000009
 31
0.0
210
0.0
220
0.0
230
1.0
 40
0.5773502691896269
 41
5.497787143782161
 42
7.068583470577051
  0
LINE
  5
BB0A
330
BACC
100
AcDbEntity
  8
0
100
AcDbLine
 10
5.287401107306941
 20
47.94550875959214
 30
0.0
 11
5.287401107306941
 21
46.72076388820054
 31
0.0
  0
LINE
  5
BB0B
330
BACC
100
AcDbEntity
  8
0
100
AcDbLine
 10
4.426145047821774
 20
46.22351747041555
 30
0.0
 11
5.287401107306978
 21
46.72076388820054
 31
0.0
  0
LINE
  5
BB0C
330
BACC
100
AcDbEntity
  8
0
100
AcDbLine
 10
0.7442197362140091
 20
24.86312435489479
 30
0.0
 11
-0.1458345639213876
 21
24.34925126511821
 31
0.0
  0
LINE
  5
BB0D
330
BACC
100
AcDbEntity
  8
0
100
AcDbLine
 10
-2.267154907481085
 20
30.68422522070158
 30
0.0
 11
0.7442197362139913
 21
28.94560725953341
 31
0.0
  0
LINE
  5
BB0E
330
BACC
100
AcDbEntity
  8
0
100
AcDbLine
 10
-0.1458345639213809
 20
21.899761522335
 30
0.0
 11
0.7442197362140069
 21
22.41363461211157
 31
0.0
  0
LINE
  5
BB0F
330
BACC
100
AcDbEntity
  8
0
100
AcDbLine
 10
-0.1458345639213876
 20
24.34925126511821
 30
0.0
 11
-0.1458345639213809
 21
21.899761522335
 31
0.0
  0
LINE
  5
BB10
330
BACC
100
AcDbEntity
  8
0
100
AcDbLine
 10
-10.79010607850089
 20
-0.5511482230615528
 30
0.0
 11
-10.7901060785009
 21
26.0160108018961
 31
0.0
  0
LINE
  5
BB11
330
BACC
100
AcDbEntity
  8
0
100
AcDbLine
 10
-10.79010607850099
 20
-121.3412029157667
 30
0.0
 11
-10.79010607850089
 21
-0.5511482230615528
 31
0.0
  0
LINE
  5
BB12
330
BACC
100
AcDbEntity
  8
0
100
AcDbLine
 10
-2.304824704262378
 20
-126.2401824013331
 30
0.0
 11
-10.79010607850099
 21
-121.3412029157667
 31
0.0
  0
LINE
  5
BB13
330
BACC
100
AcDbEntity
  8
0
100
AcDbLine
 10
-2.304824704262378
 20
-126.2401824013331
 30
0.0
 11
-2.304824704262407
 21
21.33501906278186
 31
0.0
  0
LINE
  5
BB14
330
BACC
100
AcDbEntity
  8
0
100
AcDbLine
 10
-7.125892516127906
 20
-12.00686476747816
 30
0.0
 11
-3.625892516127893
 21
-18.06904259396923
 31
0.0
  0
ELLIPSE
  5
BB15
330
BACC
100
AcDbEntity
  8
0
100
AcDbEllipse
 10
-4.375892516127891
 20
-18.50205529586144
 30
0.0
 11
0.749999999999999
 21
-1.299038105676652
 31
0.0
210
0.0
220
0.0
230
1.0
 40
0.5773502691896273
 41
4.712388980384698
 42
7.853981633974481
  0
LINE
  5
BB16
330
BACC
100
AcDbEntity
  8
0
100
AcDbLine
 10
-5.125892516127887
 20
-18.93506799775367
 30
0.0
 11
-8.62589251612791
 21
-12.8728901712626
 31
0.0
  0
ELLIPSE
  5
BB17
330
BACC
100
AcDbEntity
  8
0
100
AcDbEllipse
 10
-7.875892516127898
 20
-12.43987746937037
 30
0.0
 11
-0.7499999999999945
 21
1.299038105676646
 31
0.0
210
0.0
220
0.0
230
1.0
 40
0.5773502691896272
 41
4.712388980384686
 42
7.853981633974479
  0
LINE
  5
BB18
330
BACC
100
AcDbEntity
  8
0
100
AcDbLine
 10
-3.62589251612789
 20
-18.06904259396923
 30
0.0
 11
-5.125892516127887
 21
-18.93506799775367
 31
0.0
  0
LINE
  5
BB19
330
BACC
100
AcDbEntity
  8
0
100
AcDbLine
 10
-7.125892516127905
 20
-12.00686476747816
 30
0.0
 11
-8.62589251612791
 21
-12.8728901712626
 31
0.0
  0
LINE
  5
BB1A
330
BACC
100
AcDbEntity
  8
0
100
AcDbLine
 10
-7.1258925161279
 20
-28.33679638603268
 30
0.0
 11
-3.625892516127899
 21
-34.39897421252375
 31
0.0
  0
ELLIPSE
  5
BB1B
330
BACC
100
AcDbEntity
  8
0
100
AcDbEllipse
 10
-4.375892516127878
 20
-34.83198691441599
 30
0.0
 11
0.7500000000000128
 21
-1.299038105676645
 31
0.0
210
0.0
220
0.0
230
1.0
 40
0.5773502691896273
 41
4.712388980384673
 42
7.853981633974507
  0
LINE
  5
BB1C
330
BACC
100
AcDbEntity
  8
0
100
AcDbLine
 10
-5.125892516127894
 20
-35.26499961630817
 30
0.0
 11
-8.625892516127894
 21
-29.20282178981712
 31
0.0
  0
ELLIPSE
  5
BB1D
330
BACC
100
AcDbEntity
  8
0
100
AcDbEllipse
 10
-7.875892516127898
 20
-28.76980908792491
 30
0.0
 11
-0.7499999999999976
 21
1.299038105676644
 31
0.0
210
0.0
220
0.0
230
1.0
 40
0.5773502691896271
 41
4.712388980384695
 42
7.853981633974487
  0
LINE
  5
BB1E
330
BACC
100
AcDbEntity
  8
0
100
AcDbLine
 10
-7.1258925161279
 20
-44.66672800458723
 30
0.0
 11
-3.625892516127877
 21
-50.72890583107828
 31
0.0
  0
ELLIPSE
  5
BB1F
330
BACC
100
AcDbEntity
  8
0
100
AcDbEllipse
 10
-4.375892516127882
 20
-51.16191853297054
 30
0.0
 11
0.7500000000000116
 21
-1.299038105676645
 31
0.0
210
0.0
220
0.0
230
1.0
 40
0.5773502691896275
 41
4.712388980384681
 42
7.853981633974508
  0
LINE
  5
BB20
330
BACC
100
AcDbEntity
  8
0
100
AcDbLine
 10
-5.125892516127895
 20
-51.59493123486272
 30
0.0
 11
-8.625892516127874
 21
-45.53275340837168
 31
0.0
  0
ELLIPSE
  5
BB21
330
BACC
100
AcDbEntity
  8
0
100
AcDbEllipse
 10
-7.875892516127906
 20
-45.09974070647946
 30
0.0
 11
-0.750000000000001
 21
1.299038105676642
 31
0.0
210
0.0
220
0.0
230
0.9999999999999998
 40
0.5773502691896272
 41
4.712388980384693
 42
7.853981633974492
  0
LINE
  5
BB22
330
BACC
100
AcDbEntity
  8
0
100
AcDbLine
 10
-7.125892516127887
 20
-60.99665962314176
 30
0.0
 11
-3.625892516127874
 21
-67.05883744963282
 31
0.0
  0
ELLIPSE
  5
BB23
330
BACC
100
AcDbEntity
  8
0
100
AcDbEllipse
 10
-4.375892516127869
 20
-67.49185015152504
 30
0.0
 11
0.7500000000000125
 21
-1.299038105676645
 31
0.0
210
0.0
220
0.0
230
0.9999999999999998
 40
0.5773502691896273
 41
4.712388980384701
 42
7.853981633974507
  0
LINE
  5
BB24
330
BACC
100
AcDbEntity
  8
0
100
AcDbLine
 10
-5.125892516127854
 20
-67.92486285341728
 30
0.0
 11
-8.625892516127883
 21
-61.8626850269262
 31
0.0
  0
ELLIPSE
  5
BB25
330
BACC
100
AcDbEntity
  8
0
100
AcDbEllipse
 10
-7.875892516127882
 20
-61.42967232503399
 30
0.0
 11
-0.7499999999999887
 21
1.299038105676649
 31
0.0
210
0.0
220
0.0
230
1.0
 40
0.5773502691896272
 41
4.712388980384698
 42
7.853981633974471
  0
LINE
  5
BB26
330
BACC
100
AcDbEntity
  8
0
100
AcDbLine
 10
-7.125892516127882
 20
-77.32659124169628
 30
0.0
 11
-3.625892516127881
 21
-83.38876906818732
 31
0.0
  0
ELLIPSE
  5
BB27
330
BACC
100
AcDbEntity
  8
0
100
AcDbEllipse
 10
-4.375892516127861
 20
-83.82178177007956
 30
0.0
 11
0.7500000000000027
 21
-1.299038105676651
 31
0.0
210
0.0
220
0.0
230
1.0
 40
0.5773502691896272
 41
4.712388980384686
 42
7.85398163397448
  0
LINE
  5
BB28
330
BACC
100
AcDbEntity
  8
0
100
AcDbLine
 10
-5.125892516127872
 20
-84.25479447197179
 30
0.0
 11
-8.62589251612789
 21
-78.19261664548074
 31
0.0
  0
ELLIPSE
  5
BB29
330
BACC
100
AcDbEntity
  8
0
100
AcDbEllipse
 10
-7.875892516127884
 20
-77.75960394358857
 30
0.0
 11
-0.7499999999999759
 21
1.299038105676657
 31
0.0
210
0.0
220
0.0
230
1.0
 40
0.5773502691896271
 41
4.712388980384705
 42
7.853981633974443
  0
LINE
  5
BB2A
330
BACC
100
AcDbEntity
  8
0
100
AcDbLine
 10
-7.125892516127879
 20
-93.65652286025081
 30
0.0
 11
-3.625892516127857
 21
-99.71870068674185
 31
0.0
  0
ELLIPSE
  5
BB2B
330
BACC
100
AcDbEntity
  8
0
100
AcDbEllipse
 10
-4.375892516127844
 20
-100.1517133886342
 30
0.0
 11
0.7500000000000338
 21
-1.299038105676633
 31
0.0
210
0.0
220
0.0
230
1.0
 40
0.5773502691896272
 41
4.712388980384686
 42
7.853981633974534
  0
LINE
  5
BB2C
330
BACC
100
AcDbEntity
  8
0
100
AcDbLine
 10
-5.125892516127859
 20
-100.5847260905264
 30
0.0
 11
-8.625892516127873
 21
-94.5225482640353
 31
0.0
  0
ELLIPSE
  5
BB2D
330
BACC
100
AcDbEntity
  8
0
100
AcDbEllipse
 10
-7.875892516127876
 20
-94.08953556214306
 30
0.0
 11
-0.7499999999999844
 21
1.299038105676652
 31
0.0
210
0.0
220
0.0
230
1.0
 40
0.577350269189627
 41
4.712388980384719
 42
7.85398163397446
  0
LINE
  5
BB2E
330
BACC
100
AcDbEntity
  8
0
100
AcDbLine
 10
-7.125892516127851
 20
-109.9864544788054
 30
0.0
 11
-3.625892516127863
 21
-116.0486323052964
 31
0.0
  0
ELLIPSE
  5
BB2F
330
BACC
100
AcDbEntity
  8
0
100
AcDbEllipse
 10
-4.375892516127852
 20
-116.4816450071886
 30
0.0
 11
0.7500000000000079
 21
-1.299038105676648
 31
0.0
210
0.0
220
0.0
230
1.0
 40
0.5773502691896271
 41
4.71238898038471
 42
7.853981633974502
  0
LINE
  5
BB30
330
BACC
100
AcDbEntity
  8
0
100
AcDbLine
 10
-5.125892516127871
 20
-116.9146577090809
 30
0.0
 11
-8.625892516127859
 21
-110.8524798825898
 31
0.0
  0
ELLIPSE
  5
BB31
330
BACC
100
AcDbEntity
  8
0
100
AcDbEllipse
 10
-7.875892516127874
 20
-110.4194671806976
 30
0.0
 11
-0.7499999999999904
 21
1.299038105676648
 31
0.0
210
0.0
220
0.0
230
1.0
 40
0.5773502691896272
 41
4.712388980384652
 42
7.853981633974459
  0
LINE
  5
BB32
330
BACC
100
AcDbEntity
  8
0
100
AcDbLine
 10
-3.625892516127823
 20
-116.0486323052964
 30
0.0
 11
-5.125892516127871
 21
-116.9146577090809
 31
0.0
  0
LINE
  5
BB33
330
BACC
100
AcDbEntity
  8
0
100
AcDbLine
 10
-7.125892516127889
 20
-109.9864544788053
 30
0.0
 11
-8.625892516127859
 21
-110.8524798825898
 31
0.0
  0
LINE
  5
BB34
330
BACC
100
AcDbEntity
  8
0
100
AcDbLine
 10
-3.625892516127819
 20
-99.71870068674192
 30
0.0
 11
-5.125892516127859
 21
-100.5847260905264
 31
0.0
  0
LINE
  5
BB35
330
BACC
100
AcDbEntity
  8
0
100
AcDbLine
 10
-7.12589251612789
 20
-93.65652286025085
 30
0.0
 11
-8.625892516127873
 21
-94.5225482640353
 31
0.0
  0
LINE
  5
BB36
330
BACC
100
AcDbEntity
  8
0
100
AcDbLine
 10
-3.625892516127875
 20
-83.38876906818738
 30
0.0
 11
-5.125892516127872
 21
-84.25479447197179
 31
0.0
  0
LINE
  5
BB37
330
BACC
100
AcDbEntity
  8
0
100
AcDbLine
 10
-7.125892516127914
 20
-77.3265912416963
 30
0.0
 11
-8.62589251612789
 21
-78.19261664548074
 31
0.0
  0
LINE
  5
BB38
330
BACC
100
AcDbEntity
  8
0
100
AcDbLine
 10
-3.625892516127864
 20
-67.05883744963283
 30
0.0
 11
-5.125892516127854
 21
-67.92486285341728
 31
0.0
  0
LINE
  5
BB39
330
BACC
100
AcDbEntity
  8
0
100
AcDbLine
 10
-7.125892516127903
 20
-60.99665962314177
 30
0.0
 11
-8.625892516127883
 21
-61.8626850269262
 31
0.0
  0
LINE
  5
BB3A
330
BACC
100
AcDbEntity
  8
0
100
AcDbLine
 10
-3.625892516127886
 20
-50.72890583107825
 30
0.0
 11
-5.125892516127895
 21
-51.59493123486272
 31
0.0
  0
LINE
  5
BB3B
330
BACC
100
AcDbEntity
  8
0
100
AcDbLine
 10
-7.125892516127912
 20
-44.66672800458725
 30
0.0
 11
-8.625892516127874
 21
-45.53275340837168
 31
0.0
  0
LINE
  5
BB3C
330
BACC
100
AcDbEntity
  8
0
100
AcDbLine
 10
-3.625892516127903
 20
-34.39897421252374
 30
0.0
 11
-5.125892516127894
 21
-35.26499961630817
 31
0.0
  0
LINE
  5
BB3D
330
BACC
100
AcDbEntity
  8
0
100
AcDbLine
 10
-7.125892516127903
 20
-28.33679638603269
 30
0.0
 11
-8.625892516127894
 21
-29.20282178981712
 31
0.0
  0
LINE
  5
BB3E
330
BACC
100
AcDbEntity
  8
0
100
AcDbLine
 10
-16.83384590943308
 20
29.50536562019671
 30
0.0
 11
-10.79010607850089
 21
-0.5511482230615528
 31
0.0
  0
LINE
  5
BB3F
330
BACC
100
AcDbEntity
  8
0
100
AcDbLine
 10
0.9611115194853066
 20
39.46187729297972
 30
0.0
 11
-0.0155929438862088
 21
41.09956350541788
 31
0.0
  0
ELLIPSE
  5
BB40
330
BACC
100
AcDbEntity
  8
0
100
AcDbEllipse
 10
1.937815982856856
 20
37.82419108054198
 30
0.0
 11
3.000000000000015
 21
0.0000000000001422
 31
0.0
210
0.0
220
0.0
230
1.0
 40
0.5773502691895343
 41
4.677178363873938
 42
8.185594191853406
  0
LINE
  5
BB41
330
BACC
100
AcDbEntity
  8
0
100
AcDbLine
 10
1.832205958813064
 20
36.09321384953201
 30
0.0
 11
1.726595934769274
 21
34.36223661852236
 31
0.0
  0
ELLIPSE
  5
BB42
330
BACC
100
AcDbEntity
  8
0
100
AcDbEllipse
 10
1.937815982856856
 20
37.82419108054198
 30
0.0
 11
6.000000000000047
 21
0.0000000000000171
 31
0.0
210
0.0
220
0.0
230
1.0
 40
0.5773502691896742
 41
4.677178363873964
 42
8.185594191853423
  0
LINE
  5
BB43
330
BACC
100
AcDbEntity
  8
0
100
AcDbLine
 10
-0.0155929438862088
 20
41.09956350541788
 30
0.0
 11
-0.9611115194855186
 21
40.91159664380247
 31
0.0
  0
LINE
  5
BB44
330
BACC
100
AcDbEntity
  8
0
100
AcDbLine
 10
0.0155929438860088
 20
39.27391043136431
 30
0.0
 11
-0.9611115194855186
 21
40.91159664380247
 31
0.0
  0
LINE
  5
BB45
330
BACC
100
AcDbEntity
  8
0
100
AcDbLine
 10
0.0155929438860088
 20
39.27391043136431
 30
0.0
 11
0.9611115194853066
 21
39.46187729297972
 31
0.0
  0
LINE
  5
BB46
330
BACC
100
AcDbEntity
  8
0
100
AcDbLine
 10
-1.726595934769442
 20
41.11225783269357
 30
0.0
 11
-1.726595934769443
 21
46.01123731825994
 31
0.0
  0
LINE
  5
BB47
330
BACC
100
AcDbEntity
  8
0
100
AcDbLine
 10
-1.832205958813236
 20
44.2802600872503
 30
0.0
 11
-1.726595934769443
 21
46.01123731825994
 31
0.0
  0
LINE
  5
BB48
330
BACC
100
AcDbEntity
  8
0
100
AcDbLine
 10
-1.832205958813235
 20
40.81830562523112
 30
0.0
 11
-1.832205958813236
 21
44.2802600872503
 31
0.0
  0
LINE
  5
BB49
330
BACC
100
AcDbEntity
  8
0
100
AcDbLine
 10
1.72659593476927
 20
29.46325713295605
 30
0.0
 11
1.726595934769274
 21
34.36223661852236
 31
0.0
  0
ELLIPSE
  5
BB4A
330
BACC
100
AcDbEntity
  8
0
100
AcDbEllipse
 10
-1.937815982857025
 20
42.54928285624076
 30
0.0
 11
-2.999999999999995
 21
0.0000000000000546
 31
0.0
210
0.0
220
0.0
230
1.0
 40
0.5773502691896622
 41
1.460794977938262
 42
1.902408884673841
  0
ELLIPSE
  5
BB4B
330
BACC
100
AcDbEntity
  8
0
100
AcDbEllipse
 10
-1.937815982857025
 20
42.54928285624076
 30
0.0
 11
2.999999999999995
 21
-0.0000000000000165
 31
0.0
210
0.0
220
0.0
230
1.0
 40
0.5773502691896633
 41
1.535585710284175
 42
1.680797675651545
  0
ELLIPSE
  5
BB4C
330
BACC
100
AcDbEntity
  8
0
100
AcDbEllipse
 10
-1.937815982857025
 20
42.54928285624076
 30
0.0
 11
-6.000000000000013
 21
0.0000000000000031
 31
0.0
210
0.0
220
0.0
230
1.0
 40
0.5773502691896062
 41
4.677178363873966
 42
4.767306401446483
  0
ELLIPSE
  5
BB4D
330
BACC
100
AcDbEntity
  8
0
100
AcDbEllipse
 10
-1.937815982857025
 20
42.54928285624076
 30
0.0
 11
6.000000000000013
 21
-0.0000000000000059
 31
0.0
210
0.0
220
0.0
230
1.0
 40
0.5773502691896062
 41
4.657471559322897
 42
5.044001538263628
  0
ELLIPSE
  5
BB4E
330
BACC
100
AcDbEntity
  8
0
100
AcDbEllipse
 10
17.00184601384576
 20
103.0389122980636
 30
0.0
 11
1.249999999999921
 21
-2.165063509461145
 31
0.0
210
0.0
220
0.0
230
1.0
 40
0.5773502691896338
 41
0.0
 42
6.283185307179586
  0
ELLIPSE
  5
BB4F
330
BACC
100
AcDbEntity
  8
0
100
AcDbEllipse
 10
19.12316635740534
 20
104.2636571694553
 30
0.0
 11
1.250000000000179
 21
-2.165063509460997
 31
0.0
210
0.0
220
0.0
230
0.9999999999999998
 40
0.5773502691896339
 41
4.154790153684999
 42
5.269987807084143
  0
ELLIPSE
  5
BB50
330
BACC
100
AcDbEntity
  8
0
100
AcDbEllipse
 10
23.89613713041484
 20
78.64607694284797
 30
0.0
 11
1.249999999999921
 21
-2.165063509461144
 31
0.0
210
0.0
220
0.0
230
1.0
 40
0.5773502691896338
 41
0.0
 42
6.283185307179586
  0
ELLIPSE
  5
BB51
330
BACC
100
AcDbEntity
  8
0
100
AcDbEllipse
 10
26.01745747397445
 20
79.87082181423961
 30
0.0
 11
1.250000000000178
 21
-2.165063509460996
 31
0.0
210
0.0
220
0.0
230
0.9999999999999998
 40
0.5773502691896341
 41
4.154790153685008
 42
5.269987807084133
  0
ELLIPSE
  5
BB52
330
BACC
100
AcDbEntity
  8
0
100
AcDbEllipse
 10
8.631115938159121
 20
127.4676735028402
 30
0.0
 11
2.124999999999857
 21
-3.68060796608395
 31
0.0
210
0.0
220
0.0
230
0.9999999999999998
 40
0.5773502691896355
 41
0.0
 42
6.283185307179586
  0
ELLIPSE
  5
BB53
330
BACC
100
AcDbEntity
  8
0
100
AcDbEllipse
 10
10.75243628171871
 20
128.6924183742318
 30
0.0
 11
2.1250000000003
 21
-3.680607966083697
 31
0.0
210
0.0
220
0.0
230
0.9999999999999998
 40
0.5773502691896337
 41
3.664191975904921
 42
5.760585984863706
  0
ELLIPSE
  5
BB54
330
BACC
100
AcDbEntity
  8
0
100
AcDbEllipse
 10
-17.0018460138463
 20
85.92860690210656
 30
0.0
 11
1.250000000000132
 21
-2.165063509461023
 31
0.0
210
0.0
220
0.0
230
0.9999999999999998
 40
0.5773502691896292
 41
4.154790153685016
 42
5.269987807084111
  0
ELLIPSE
  5
BB55
330
BACC
100
AcDbEntity
  8
0
100
AcDbEllipse
 10
-19.12316635740595
 20
84.70386203071498
 30
0.0
 11
1.24999999999987
 21
-2.165063509461171
 31
0.0
210
0.0
220
0.0
230
1.0
 40
0.5773502691896288
 41
0.0
 42
6.283185307179586
  0
ELLIPSE
  5
BB56
330
BACC
100
AcDbEntity
  8
0
100
AcDbEllipse
 10
-23.8961371304152
 20
69.49661321093602
 30
0.0
 11
1.250000000000131
 21
-2.165063509461023
 31
0.0
210
0.0
220
0.0
230
1.0
 40
0.577350269189629
 41
4.154790153685022
 42
5.26998780708412
  0
ELLIPSE
  5
BB57
330
BACC
100
AcDbEntity
  8
0
100
AcDbEllipse
 10
-26.01745747397484
 20
68.27186833954442
 30
0.0
 11
1.24999999999987
 21
-2.165063509461171
 31
0.0
210
0.0
220
0.0
230
1.0
 40
0.5773502691896288
 41
0.0
 42
6.283185307179586
  0
ELLIPSE
  5
BB58
330
BACC
100
AcDbEntity
  8
0
100
AcDbEllipse
 10
-8.631115938159934
 20
100.6916815818607
 30
0.0
 11
2.125000000000223
 21
-3.680607966083739
 31
0.0
210
0.0
220
0.0
230
1.0
 40
0.5773502691896287
 41
3.664191975904925
 42
5.760585984863693
  0
ELLIPSE
  5
BB59
330
BACC
100
AcDbEntity
  8
0
100
AcDbEllipse
 10
-10.75243628171957
 20
99.46693671046913
 30
0.0
 11
2.124999999999789
 21
-3.680607966083988
 31
0.0
210
0.0
220
0.0
230
1.0
 40
0.5773502691896267
 41
0.0
 42
6.283185307179586
  0
LINE
  5
BB5A
330
BACC
100
AcDbEntity
  8
0
100
AcDbLine
 10
31.67431172346675
 20
119.8791542796981
 30
0.0
 11
28.13877781753391
 21
126.002878636656
 31
0.0
  0
LINE
  5
BB5B
330
BACC
100
AcDbEntity
  8
0
100
AcDbLine
 10
28.13877781753391
 20
126.002878636656
 30
0.0
 11
26.0174574739743
 21
124.7781337652644
 31
0.0
  0
LINE
  5
BB5C
330
BACC
100
AcDbEntity
  8
0
100
AcDbLine
 10
26.0174574739743
 20
124.7781337652644
 30
0.0
 11
29.55299137990721
 21
118.6544094083065
 31
0.0
  0
LINE
  5
BB5D
330
BACC
100
AcDbEntity
  8
0
100
AcDbLine
 10
29.55299137990721
 20
118.6544094083065
 30
0.0
 11
31.67431172346675
 21
119.8791542796981
 31
0.0
  0
LINE
  5
BB5E
330
BACC
100
AcDbEntity
  8
0
100
AcDbLine
 10
2.267154907480142
 20
134.4078944407258
 30
0.0
 11
5.802688813412837
 21
136.4491358930451
 31
0.0
  0
LINE
  5
BB5F
330
BACC
100
AcDbEntity
  8
0
100
AcDbLine
 10
-7.92400915697334
 20
105.1824127769633
 30
0.0
 11
-4.388475251040797
 21
99.05868842000543
 31
0.0
  0
LINE
  5
BB60
330
BACC
100
AcDbEntity
  8
0
100
AcDbLine
 10
-4.388475251040797
 20
99.05868842000543
 30
0.0
 11
-2.267154907481148
 21
100.283433291397
 31
0.0
  0
LINE
  5
BB61
330
BACC
100
AcDbEntity
  8
0
100
AcDbLine
 10
-2.267154907481148
 20
100.283433291397
 30
0.0
 11
-5.802688813413712
 21
106.4071576483549
 31
0.0
  0
LINE
  5
BB62
330
BACC
100
AcDbEntity
  8
0
100
AcDbLine
 10
-5.802688813413712
 20
106.4071576483549
 30
0.0
 11
-7.92400915697334
 21
105.1824127769633
 31
0.0
  0
LINE
  5
BB63
330
BACC
100
AcDbEntity
  8
0
100
AcDbLine
 10
-28.13877781753442
 20
116.8534149047441
 30
0.0
 11
-26.01745747397478
 21
118.0781597761358
 31
0.0
  0
LINE
  5
BB64
330
BACC
100
AcDbEntity
  8
0
100
AcDbLine
 10
-31.67431172346719
 20
114.8121734524248
 30
0.0
 11
-28.13877781753442
 21
116.8534149047441
 31
0.0
  0
LINE
  5
BB65
330
BACC
100
AcDbEntity
  8
0
100
AcDbLine
 10
5.802688813412837
 20
136.4491358930451
 30
0.0
 11
7.924009156972458
 21
137.6738807644368
 31
0.0
  0
LINE
  5
BB66
330
BACC
100
AcDbEntity
  8
0
100
AcDbLine
 10
29.55299137990721
 20
118.6544094083065
 30
0.0
 11
29.55299137990749
 21
43.94497225341954
 31
0.0
  0
LINE
  5
BB67
330
BACC
100
AcDbEntity
  8
0
100
AcDbLine
 10
31.6743117234671
 20
45.16971712481116
 30
0.0
 11
31.67431172346675
 21
119.8791542796981
 31
0.0
  0
LINE
  5
BB68
330
BACC
100
AcDbEntity
  8
0
100
AcDbLine
 10
26.0174574739743
 20
124.7781337652644
 30
0.0
 11
5.802688813412837
 21
136.4491358930451
 31
0.0
  0
LINE
  5
BB69
330
BACC
100
AcDbEntity
  8
0
100
AcDbLine
 10
2.267154907480142
 20
134.4078944407258
 30
0.0
 11
2.267154907480464
 21
59.69845728583877
 31
0.0
  0
LINE
  5
BB6A
330
BACC
100
AcDbEntity
  8
0
100
AcDbLine
 10
-26.01745747397478
 20
118.0781597761358
 30
0.0
 11
-5.802688813413712
 21
106.4071576483549
 31
0.0
  0
LINE
  5
BB6B
330
BACC
100
AcDbEntity
  8
0
100
AcDbLine
 10
-28.13877781753442
 20
116.8534149047441
 30
0.0
 11
-7.924009156973341
 21
105.1824127769633
 31
0.0
  0
LINE
  5
BB6C
330
BACC
100
AcDbEntity
  8
0
100
AcDbLine
 10
-2.267154907481148
 20
100.283433291397
 30
0.0
 11
-2.267154907481085
 21
25.57399613650974
 31
0.0
  0
LINE
  5
BB6D
330
BACC
100
AcDbEntity
  8
0
100
AcDbLine
 10
-31.67431172346728
 20
40.10273629753759
 30
0.0
 11
-31.67431172346719
 21
114.8121734524248
 31
0.0
  0
LINE
  5
BB6E
330
BACC
100
AcDbEntity
  8
0
100
AcDbLine
 10
28.13877781753391
 20
126.002878636656
 30
0.0
 11
7.924009156972458
 21
137.6738807644368
 31
0.0
  0
LINE
  5
BB6F
330
BACC
100
AcDbEntity
  8
0
100
AcDbLine
 10
-4.388475251040797
 20
99.05868842000543
 30
0.0
 11
-4.388475251040717
 21
24.34925126511815
 31
0.0
  0
LINE
  5
BB70
330
BACC
100
AcDbEntity
  8
0
100
AcDbLine
 10
0.9611115194853066
 20
39.46187729297972
 30
0.0
 11
0.9611115194853125
 21
30.09003604728112
 31
0.0
  0
LINE
  5
BB71
330
BACC
100
AcDbEntity
  8
0
100
AcDbLine
 10
0.0155929438860088
 20
39.27391043136431
 30
0.0
 11
0.0155929438860143
 21
30.79976112746149
 31
0.0
  0
LINE
  5
BB72
330
BACC
100
AcDbEntity
  8
0
100
AcDbLine
 10
7.937815982856917
 20
-123.79069265855
 30
0.0
 11
7.937815982856866
 21
37.82419108054196
 31
0.0
  0
LINE
  5
BB73
330
BACC
100
AcDbEntity
  8
0
100
AcDbLine
 10
-1.726595934769442
 20
41.11225783269357
 30
0.0
 11
-1.744376076149236
 21
40.82083644375614
 31
0.0
  0
SPLINE
  5
BB74
330
BACC
100
AcDbEntity
  8
0
100
AcDbSpline
210
0.0
220
0.0
230
1.0
 70
     8
 71
     3
 72
    14
 73
    10
 74
     0
 42
0.000000001
 43
0.0000000001
 40
-0.3483661581039741
 40
-0.3483661581039741
 40
-0.3483661581039741
 40
-0.3483661581039741
 40
0.4440817313539134
 40
0.4440817313539134
 40
0.4440817313539134
 40
1.569165144395759
 40
1.569165144395759
 40
1.569165144395759
 40
2.356194490192133
 40
2.356194490192133
 40
2.356194490192133
 40
2.356194490192133
 10
1.720898725392157
 20
30.68176468951391
 30
0.0
 10
1.592402717394931
 20
30.39590093391814
 30
0.0
 10
1.363880136819717
 20
30.17167344571341
 30
0.0
 10
1.095063262947626
 20
30.10881192289904
 30
0.0
 10
0.7134086330814929
 20
30.01956383784783
 30
0.0
 10
0.2962126343331226
 20
30.27355830172766
 30
0.0
 10
0.0628833958359881
 20
30.70566180952202
 30
0.0
 10
-0.1003373536665519
 20
31.00793107872779
 30
0.0
 10
-0.1835043607029091
 20
31.37916333861728
 30
0.0
 10
-0.1835043607029535
 20
31.70046672358357
 30
0.0
  0
LINE
  5
BB75
330
BACC
100
AcDbEntity
  8
0
100
AcDbLine
 10
-2.105420591967835
 20
30.59084787010279
 30
0.0
 11
-0.1835043607027897
 21
31.70046672358358
 31
0.0
  0
SPLINE
  5
BB76
330
BACC
100
AcDbEntity
  8
0
100
AcDbSpline
210
0.0
220
0.0
230
1.0
 70
     8
 71
     3
 72
     8
 73
     4
 74
     0
 42
0.000000001
 43
0.0000000001
 40
1.379729697021968
 40
1.379729697021968
 40
1.379729697021968
 40
1.379729697021968
 40
2.35619449019219
 40
2.35619449019219
 40
2.35619449019219
 40
2.35619449019219
 10
0.7436418130470807
 20
28.51576521430492
 30
0.0
 10
1.334088720225814
 20
28.67031379958322
 30
0.0
 10
1.726595934768732
 20
29.06461705044602
 30
0.0
 10
1.726595934768847
 20
29.46325713295591
 30
0.0
  0
SPLINE
  5
BB77
330
BACC
100
AcDbEntity
  8
0
100
AcDbSpline
210
0.0
220
0.0
230
1.0
 70
     8
 71
     3
 72
     8
 73
     4
 74
     0
 42
0.000000001
 43
0.0000000001
 40
2.120201833790631
 40
2.120201833790631
 40
2.120201833790631
 40
2.120201833790631
 40
2.356194490192299
 40
2.356194490192299
 40
2.356194490192299
 40
2.356194490192299
 10
-1.66056403912323
 20
40.82619161545466
 30
0.0
 10
-1.703669768224612
 20
40.92016448100743
 30
0.0
 10
-1.726595934769523
 20
41.01591423415556
 30
0.0
 10
-1.726595934769532
 20
41.11225783269357
 30
0.0
  0
ELLIPSE
  5
BB78
330
BACC
100
AcDbEntity
  8
0
100
AcDbEllipse
 10
1.937815982856907
 20
-123.79069265855
 30
0.0
 11
6.000000000000018
 21
0.0000000000003592
 31
0.0
210
0.0
220
0.0
230
1.0
 40
0.5773502691896257
 41
3.926990816987
 42
6.283185307179204
  0
ENDBLK
  5
BACE
330
BACC
100
AcDbEntity
  8
0
100
AcDbBlockEnd
  0
ENDSEC
  0
SECTION
  2
ENTITIES
  0
INSERT
  5
BB79
330
1F
100
AcDbEntity
  8
0
100
AcDbBlockReference
  2
PBWS45-Front
 10
0.0
 20
0.0
 30
0.0
  0
INSERT
  5
BB7A
330
1F
100
AcDbEntity
  8
0
100
AcDbBlockReference
  2
PBWS45-Left
 10
132.0510978852952
 20
0.0
 30
0.0
  0
INSERT
  5
BB7B
330
1F
100
AcDbEntity
  8
0
100
AcDbBlockReference
  2
PBWS45-Right
 10
-134.025582436181
 20
0.0
 30
0.0
  0
INSERT
  5
BB7C
330
1F
100
AcDbEntity
  8
0
100
AcDbBlockReference
  2
PBWS45-Top
 10
0.0
 20
-311.6810989424791
 30
0.0
  0
INSERT
  5
BB7D
330
1F
100
AcDbEntity
  8
0
100
AcDbBlockReference
  2
PBWS45-Bottom
 10
0.0
 20
213.2440989424797
 30
0.0
  0
INSERT
  5
BB7E
330
1F
100
AcDbEntity
  8
0
100
AcDbBlockReference
  2
PBWS45-ISO
 10
139.2124106662842
 20
-424.8419807644371
 30
0.0
  0
MTEXT
  5
BB7F
330
1F
100
AcDbEntity
  8
0
100
AcDbMText
 10
0.0
 20
-427.3991999998029
 30
0.0
 40
21.70506824365187
 41
0.0
 71
     5
 72
     5
  1
PBWS45Z
 73
     1
 44
1.0
1001
ACAD
1000
MTEXTBEGIN
1070
    73
1070
     1
1070
    44
1040
1.0
1070
    74
1070
     0
1000
MTEXTEND
  0
ENDSEC
  0
SECTION
  2
OBJECTS
  0
DICTIONARY
  5
C
330
0
100
AcDbDictionary
281
     1
  3
ACAD_CIP_PREVIOUS_PRODUCT_INFO
350
216
  3
ACAD_COLOR
350
6B
  3
ACAD_DETAILVIEWSTYLE
350
21B
  3
ACAD_GROUP
350
D
  3
ACAD_LAYOUT
350
1A
  3
ACAD_MATERIAL
350
6A
  3
ACAD_MLEADERSTYLE
350
12D
  3
ACAD_MLINESTYLE
350
17
  3
ACAD_PLOTSETTINGS
350
19
  3
ACAD_PLOTSTYLENAME
350
E
  3
ACAD_SCALELIST
350
10C
  3
ACAD_SECTIONVIEWSTYLE
350
219
  3
ACAD_TABLESTYLE
350
7E
  3
ACAD_VISUALSTYLE
350
EF
  3
ACDB_RECOMPOSE_DATA
350
BC80
  3
AcDbVariableDictionary
350
5E
  3
DWGPROPS
350
BC81
  0
DICTIONARY
  5
BBD0
330
8
100
AcDbDictionary
280
     1
281
     1
  0
DICTIONARY
  5
1FF
330
2
100
AcDbDictionary
280
     1
281
     1
  3
ACAD_LAYERSTATES
360
200
  0
DICTIONARY
  5
13C
330
10
100
AcDbDictionary
280
     1
281
     1
  0
DICTIONARY
  5
1CE
330
1F
100
AcDbDictionary
280
     1
281
     1
  3
ACAD_LAYOUTSELFREF
360
BBD8
  0
DICTIONARY
  5
BB83
330
D2
100
AcDbDictionary
280
     1
281
     1
  3
ACAD_LAYOUTSELFREF
360
BBE1
  0
DICTIONARY
  5
BB85
330
D6
100
AcDbDictionary
280
     1
281
     1
  3
ACAD_LAYOUTSELFREF
360
BBE4
  0
XRECORD
  5
216
102
{ACAD_REACTORS
330
C
102
}
330
C
100
AcDbXrecord
280
     1
300
ACD
300
2021
300

  0
DICTIONARY
  5
6B
102
{ACAD_REACTORS
330
C
102
}
330
C
100
AcDbDictionary
281
     1
  0
DICTIONARY
  5
21B
102
{ACAD_REACTORS
330
C
102
}
330
C
100
AcDbDictionary
281
     1
  3
Metric50
350
21C
  0
DICTIONARY
  5
D
102
{ACAD_REACTORS
330
C
102
}
330
C
100
AcDbDictionary
281
     1
  0
DICTIONARY
  5
1A
102
{ACAD_REACTORS
330
C
102
}
330
C
100
AcDbDictionary
281
     1
  3
Layout1
350
D3
  3
Layout2
350
D7
  3
Model
350
22
  0
DICTIONARY
  5
6A
102
{ACAD_REACTORS
330
C
102
}
330
C
100
AcDbDictionary
281
     1
  3
ByBlock
350
ED
  3
ByLayer
350
EC
  3
Global
350
EE
  0
DICTIONARY
  5
12D
102
{ACAD_REACTORS
330
C
102
}
330
C
100
AcDbDictionary
281
     1
  3
Standard
350
12E
  0
DICTIONARY
  5
17
102
{ACAD_REACTORS
330
C
102
}
330
C
100
AcDbDictionary
281
     1
  3
Standard
350
18
  0
DICTIONARY
  5
19
102
{ACAD_REACTORS
330
C
102
}
330
C
100
AcDbDictionary
281
     1
  0
ACDBDICTIONARYWDFLT
  5
E
102
{ACAD_REACTORS
330
C
102
}
330
C
100
AcDbDictionary
281
     1
  3
Normal
350
F
100
AcDbDictionaryWithDefault
340
F
  0
DICTIONARY
  5
10C
102
{ACAD_REACTORS
330
C
102
}
330
C
100
AcDbDictionary
281
     1
  3
A0
350
10D
  3
A1
350
1BE
  3
A2
350
1BF
  3
A3
350
1C0
  3
A4
350
1C1
  3
A5
350
1C2
  3
A6
350
1C3
  3
A7
350
1C4
  3
A8
350
1C5
  3
A9
350
1C6
  3
B0
350
1C7
  3
B1
350
1C8
  3
B2
350
1C9
  3
B3
350
1CA
  3
B4
350
1CB
  3
B5
350
1CC
  3
B6
350
1CD
  0
DICTIONARY
  5
219
102
{ACAD_REACTORS
330
C
102
}
330
C
100
AcDbDictionary
281
     1
  3
Metric50
350
21A
  0
DICTIONARY
  5
7E
102
{ACAD_REACTORS
330
C
102
}
330
C
100
AcDbDictionary
281
     1
  3
Standard
350
7F
  0
DICTIONARY
  5
EF
102
{ACAD_REACTORS
330
C
102
}
330
C
100
AcDbDictionary
281
     1
  3
2dWireframe
350
F5
  3
Basic
350
F4
  3
Brighten
350
FB
  3
ColorChange
350
FF
  3
Conceptual
350
F8
  3
Dim
350
FA
  3
EdgeColorOff
350
1E6
  3
Facepattern
350
FE
  3
Flat
350
F0
  3
FlatWithEdges
350
F1
  3
Gouraud
350
F2
  3
GouraudWithEdges
350
F3
  3
Hidden
350
F7
  3
JitterOff
350
1E4
  3
Linepattern
350
FD
  3
OverhangOff
350
1E5
  3
Realistic
350
F9
  3
Shaded
350
1F3
  3
Shaded with edges
350
1F2
  3
Shades of Gray
350
1EF
  3
Sketchy
350
1F0
  3
Thicken
350
FC
  3
Wireframe
350
F6
  3
X-Ray
350
1F1
  0
XRECORD
  5
BC80
102
{ACAD_REACTORS
330
C
102
}
330
C
100
AcDbXrecord
280
     1
 90
        1
330
7F
  0
DICTIONARY
  5
5E
102
{ACAD_REACTORS
330
C
102
}
330
C
100
AcDbDictionary
281
     1
  3
CANNOSCALE
350
146
  3
CENTEREXE
350
259
  3
CENTERLTYPEFILE
350
25A
  3
CMLEADERSTYLE
350
145
  3
CTABLESTYLE
350
84
  3
CVIEWDETAILSTYLE
350
227
  3
CVIEWSECTIONSTYLE
350
228
  3
DIMASSOC
350
5F
  3
HIDETEXT
350
63
  3
INDEXCTL
350
BC2D
  3
LAYEREVAL
350
1AE
  3
LAYERNOTIFY
350
1AF
  3
LIGHTINGUNITS
350
BC2B
  3
MSLTSCALE
350
BC2A
  3
PSOLHEIGHT
350
BC7D
  3
PSOLWIDTH
350
BC7C
  3
SORTENTS
350
BC2C
  3
XCLIPFRAME
350
BC7E
  0
XRECORD
  5
BC81
102
{ACAD_REACTORS
330
C
102
}
330
C
100
AcDbXrecord
280
     1
  1
DWGPROPS COOKIE
  2

  3

  4

  6

  7

  8
tronnguyen
  9

300
=
301
=
302
=
303
=
304
=
305
=
306
=
307
=
308
=
309
=
 40
0.0048032407407407
 41
2460286.6225
 42
2460286.637870371
  1

 90
        0
  0
DICTIONARY
  5
200
102
{ACAD_REACTORS
330
1FF
102
}
330
1FF
100
AcDbDictionary
281
     1
  0
XRECORD
  5
BBD8
102
{ACAD_REACTORS
330
1CE
102
}
330
1CE
100
AcDbXrecord
280
     1
340
1F
  0
XRECORD
  5
BBE1
102
{ACAD_REACTORS
330
BB83
102
}
330
BB83
100
AcDbXrecord
280
     1
340
D2
  0
XRECORD
  5
BBE4
102
{ACAD_REACTORS
330
BB85
102
}
330
BB85
100
AcDbXrecord
280
     1
340
D6
  0
ACDBDETAILVIEWSTYLE
  5
21C
102
{ACAD_XDICTIONARY
360
BCC0
102
}
102
{ACAD_REACTORS
330
21B
102
}
330
21B
100
AcDbModelDocViewStyle
 70
     0
  3
Metric50
290
     0
100
AcDbDetailViewStyle
 70
     0
 71
     0
 90
        3
 71
     1
340
11
 40
5.0
340
0
 40
5.0
300

 40
0.0
280
     1
 71
     2
340
16
 90
       25
 71
     3
340
11
 40
5.0
 90
        0
 40
15.0
 90
        1
300
%<\AcVar ViewDetailId>% (%<\AcVar ViewScale \f "%sn">%)
 71
     4
340
16
 90
       25
340
16
 90
       25
280
     0
  0
LAYOUT
  5
D3
102
{ACAD_XDICTIONARY
360
BC85
102
}
102
{ACAD_REACTORS
330
1A
102
}
330
1A
100
AcDbPlotSettings
  1

  2
C:\Documents and Settings\basas\Application Data\Autodesk\AutoCAD 2005\R16.1\enu\plotters\Default Windows System Printer.pc3
  4

  6

 40
0.0
 41
0.0
 42
0.0
 43
0.0
 44
0.0
 45
0.0
 46
0.0
 47
0.0
 48
0.0
 49
0.0
140
0.0
141
0.0
142
1.0
143
1.0
 70
   688
 72
     0
 73
     0
 74
     5
  7

 75
    16
147
1.0
148
0.0
149
0.0
100
AcDbLayout
  1
Layout1
 70
     1
 71
     1
 10
0.0
 20
0.0
 11
12.0
 21
9.0
 12
0.0
 22
0.0
 32
0.0
 14
0.0
 24
0.0
 34
0.0
 15
0.0
 25
0.0
 35
0.0
146
0.0
 13
0.0
 23
0.0
 33
0.0
 16
1.0
 26
0.0
 36
0.0
 17
0.0
 27
1.0
 37
0.0
 76
     0
330
D2
  0
LAYOUT
  5
D7
102
{ACAD_XDICTIONARY
360
BC87
102
}
102
{ACAD_REACTORS
330
1A
102
}
330
1A
100
AcDbPlotSettings
  1

  2
C:\Documents and Settings\basas\Application Data\Autodesk\AutoCAD 2005\R16.1\enu\plotters\Default Windows System Printer.pc3
  4

  6

 40
0.0
 41
0.0
 42
0.0
 43
0.0
 44
0.0
 45
0.0
 46
0.0
 47
0.0
 48
0.0
 49
0.0
140
0.0
141
0.0
142
1.0
143
1.0
 70
   688
 72
     0
 73
     0
 74
     5
  7

 75
    16
147
1.0
148
0.0
149
0.0
100
AcDbLayout
  1
Layout2
 70
     1
 71
     2
 10
0.0
 20
0.0
 11
12.0
 21
9.0
 12
0.0
 22
0.0
 32
0.0
 14
0.0
 24
0.0
 34
0.0
 15
0.0
 25
0.0
 35
0.0
146
0.0
 13
0.0
 23
0.0
 33
0.0
 16
1.0
 26
0.0
 36
0.0
 17
0.0
 27
1.0
 37
0.0
 76
     0
330
D6
  0
LAYOUT
  5
22
102
{ACAD_XDICTIONARY
360
BC82
102
}
102
{ACAD_REACTORS
330
1A
102
}
330
1A
100
AcDbPlotSettings
  1

  2
none_device
  4
ISO_A4_(210.00_x_297.00_MM)
  6

 40
7.5
 41
20.0
 42
7.5
 43
20.0
 44
210.0
 45
297.0
 46
11.54999923706054
 47
-13.65000009536743
 48
0.0
 49
0.0
140
0.0
141
0.0
142
1.0
143
8.704084754739808
 70
 11952
 72
     1
 73
     0
 74
     0
  7

 75
     0
147
0.1148885871608098
148
0.0
149
0.0
100
AcDbLayout
  1
Model
 70
     1
 71
     0
 10
0.0
 20
0.0
 11
12.0
 21
9.0
 12
0.0
 22
0.0
 32
0.0
 14
0.0
 24
0.0
 34
0.0
 15
0.0
 25
0.0
 35
0.0
146
0.0
 13
0.0
 23
0.0
 33
0.0
 16
1.0
 26
0.0
 36
0.0
 17
0.0
 27
1.0
 37
0.0
 76
     0
330
1F
331
EA
1001
ACAD_PSEXT
1000
None
1000
None
1000
Not applicable
1000
The layout will not be plotted unless a new plotter configuration name is selected.
1070
     0
  0
MATERIAL
  5
ED
102
{ACAD_XDICTIONARY
360
1F9
102
}
102
{ACAD_REACTORS
330
6A
102
}
330
6A
100
AcDbMaterial
  1
ByBlock
  0
MATERIAL
  5
EC
102
{ACAD_XDICTIONARY
360
1F7
102
}
102
{ACAD_REACTORS
330
6A
102
}
330
6A
100
AcDbMaterial
  1
ByLayer
  0
MATERIAL
  5
EE
102
{ACAD_XDICTIONARY
360
173
102
}
102
{ACAD_REACTORS
330
6A
102
}
330
6A
100
AcDbMaterial
  1
Global
 43
0.0007999999797903
 43
0.0
 43
0.0
 43
0.0
 43
0.0
 43
0.0007999999797903
 43
0.0
 43
0.0
 43
0.0
 43
0.0
 43
1.0
 43
0.0
 43
0.0
 43
0.0
 43
0.0
 43
1.0
 49
0.0007999999797903
 49
0.0
 49
0.0
 49
0.0
 49
0.0
 49
0.0007999999797903
 49
0.0
 49
0.0
 49
0.0
 49
0.0
 49
1.0
 49
0.0
 49
0.0
 49
0.0
 49
0.0
 49
1.0
142
0.0007999999797903
142
0.0
142
0.0
142
0.0
142
0.0
142
0.0007999999797903
142
0.0
142
0.0
142
0.0
142
0.0
142
1.0
142
0.0
142
0.0
142
0.0
142
0.0
142
1.0
144
0.0007999999797903
144
0.0
144
0.0
144
0.0
144
0.0
144
0.0007999999797903
144
0.0
144
0.0
144
0.0
144
0.0
144
1.0
144
0.0
144
0.0
144
0.0
144
0.0
144
1.0
1001
ACAD
1070
    -1
1070
     3
1070
     0
1000

1071
        0
1070
     0
  0
MLEADERSTYLE
  5
12E
102
{ACAD_XDICTIONARY
360
BCAC
102
}
102
{ACAD_REACTORS
330
12D
102
}
330
12D
100
AcDbMLeaderStyle
170
     2
171
     1
172
     0
 90
        2
 40
0.0
 41
0.0
173
     1
 91
-1056964608
340
14
 92
       -2
290
     1
 42
2.0
291
     1
 43
8.0
  3
Standard
 44
4.0
300

342
11
174
     1
178
     1
175
     1
176
     0
 93
-1056964608
 45
4.0
292
     0
297
     0
 46
4.0
 94
-1056964608
 47
1.0
 49
1.0
140
1.0
293
     1
141
0.0
294
     1
177
     0
142
1.0
295
     0
296
     0
143
3.75
1001
ACAD_MLEADERVER
1070
     2
  0
MLINESTYLE
  5
18
102
{ACAD_REACTORS
330
17
102
}
330
17
100
AcDbMlineStyle
  2
STANDARD
 70
     0
  3

 62
   256
 51
90.0
 52
90.0
 71
     2
 49
0.5
 62
   256
  6
BYLAYER
 49
-0.5
 62
   256
  6
BYLAYER
  0
ACDBPLACEHOLDER
  5
F
102
{ACAD_REACTORS
330
E
102
}
330
E
  0
SCALE
  5
10D
102
{ACAD_REACTORS
330
10C
102
}
330
10C
100
AcDbScale
 70
     0
300
1:1
140
1.0
141
1.0
290
     1
  0
SCALE
  5
1BE
102
{ACAD_REACTORS
330
10C
102
}
330
10C
100
AcDbScale
 70
     0
300
1:2
140
1.0
141
2.0
290
     0
  0
SCALE
  5
1BF
102
{ACAD_REACTORS
330
10C
102
}
330
10C
100
AcDbScale
 70
     0
300
1:4
140
1.0
141
4.0
290
     0
  0
SCALE
  5
1C0
102
{ACAD_REACTORS
330
10C
102
}
330
10C
100
AcDbScale
 70
     0
300
1:5
140
1.0
141
5.0
290
     0
  0
SCALE
  5
1C1
102
{ACAD_REACTORS
330
10C
102
}
330
10C
100
AcDbScale
 70
     0
300
1:8
140
1.0
141
8.0
290
     0
  0
SCALE
  5
1C2
102
{ACAD_REACTORS
330
10C
102
}
330
10C
100
AcDbScale
 70
     0
300
1:10
140
1.0
141
10.0
290
     0
  0
SCALE
  5
1C3
102
{ACAD_REACTORS
330
10C
102
}
330
10C
100
AcDbScale
 70
     0
300
1:16
140
1.0
141
16.0
290
     0
  0
SCALE
  5
1C4
102
{ACAD_REACTORS
330
10C
102
}
330
10C
100
AcDbScale
 70
     0
300
1:20
140
1.0
141
20.0
290
     0
  0
SCALE
  5
1C5
102
{ACAD_REACTORS
330
10C
102
}
330
10C
100
AcDbScale
 70
     0
300
1:30
140
1.0
141
30.0
290
     0
  0
SCALE
  5
1C6
102
{ACAD_REACTORS
330
10C
102
}
330
10C
100
AcDbScale
 70
     0
300
1:40
140
1.0
141
40.0
290
     0
  0
SCALE
  5
1C7
102
{ACAD_REACTORS
330
10C
102
}
330
10C
100
AcDbScale
 70
     0
300
1:50
140
1.0
141
50.0
290
     0
  0
SCALE
  5
1C8
102
{ACAD_REACTORS
330
10C
102
}
330
10C
100
AcDbScale
 70
     0
300
1:100
140
1.0
141
100.0
290
     0
  0
SCALE
  5
1C9
102
{ACAD_REACTORS
330
10C
102
}
330
10C
100
AcDbScale
 70
     0
300
2:1
140
2.0
141
1.0
290
     0
  0
SCALE
  5
1CA
102
{ACAD_REACTORS
330
10C
102
}
330
10C
100
AcDbScale
 70
     0
300
4:1
140
4.0
141
1.0
290
     0
  0
SCALE
  5
1CB
102
{ACAD_REACTORS
330
10C
102
}
330
10C
100
AcDbScale
 70
     0
300
8:1
140
8.0
141
1.0
290
     0
  0
SCALE
  5
1CC
102
{ACAD_REACTORS
330
10C
102
}
330
10C
100
AcDbScale
 70
     0
300
10:1
140
10.0
141
1.0
290
     0
  0
SCALE
  5
1CD
102
{ACAD_REACTORS
330
10C
102
}
330
10C
100
AcDbScale
 70
     0
300
100:1
140
100.0
141
1.0
290
     0
  0
ACDBSECTIONVIEWSTYLE
  5
21A
102
{ACAD_XDICTIONARY
360
BCBE
102
}
102
{ACAD_REACTORS
330
219
102
}
330
219
100
AcDbModelDocViewStyle
 70
     0
  3
Metric50
290
     0
100
AcDbSectionViewStyle
 70
     0
 71
     0
 90
      102
 71
     1
340
11
 40
5.0
340
0
340
0
 40
5.0
300
I, O, Q, S, X, Z
 40
10.0
 90
        0
 40
2.5
 90
        0
 71
     2
340
16
 90
       25
340
16
 90
       50
 40
5.0
 40
2.5
 40
5.0
 71
     3
340
11
 40
5.0
 90
        0
 40
15.0
 90
        1
300
%<\AcVar ViewSectionStartId>%-%<\AcVar ViewSectionEndId>% (%<\AcVar ViewScale \f "%sn">%)
 71
     4
300
ANSI31
 40
1.0
 90
        0
290
     0
290
     0
 90
        6
 40
0.0
 40
1.570796326794896
 40
0.2617993877991494
 40
1.308996938995747
 40
-0.2617993877991494
 40
1.832595714594046
  0
TABLESTYLE
  5
7F
102
{ACAD_XDICTIONARY
360
162
102
}
102
{ACAD_REACTORS
330
7E
102
}
330
7E
100
AcDbTableStyle
  3
Standard
 70
     0
 71
     0
 40
1.5
 41
1.5
280
     0
281
     0
  7
Standard
140
4.5
170
     2
 62
     0
 63
     7
283
     0
274
    -2
284
     1
 64
     0
275
    -2
285
     1
 65
     0
276
    -2
286
     1
 66
     0
277
    -2
287
     1
 67
     0
278
    -2
288
     1
 68
     0
279
    -2
289
     1
 69
     0
  7
Standard
140
6.0
170
     5
 62
     0
 63
     7
283
     0
274
    -2
284
     1
 64
     0
275
    -2
285
     1
 65
     0
276
    -2
286
     1
 66
     0
277
    -2
287
     1
 67
     0
278
    -2
288
     1
 68
     0
279
    -2
289
     1
 69
     0
  7
Standard
140
4.5
170
     5
 62
     0
 63
     7
283
     0
274
    -2
284
     1
 64
     0
275
    -2
285
     1
 65
     0
276
    -2
286
     1
 66
     0
277
    -2
287
     1
 67
     0
278
    -2
288
     1
 68
     0
279
    -2
289
     1
 69
     0
  0
VISUALSTYLE
  5
F5
102
{ACAD_XDICTIONARY
360
BC96
102
}
102
{ACAD_REACTORS
330
EF
102
}
330
EF
100
AcDbVisualStyle
  2
2dWireframe
 70
     4
 71
     0
 72
     2
 73
     1
 90
        0
 40
-0.6
 41
-30.0
 62
     5
 63
     7
 74
     1
 91
        4
 64
     7
 65
   257
 75
     1
175
     1
 42
1.0
 92
        0
 66
   257
 43
1.0
 76
     1
 77
     6
 78
     2
 67
     7
 79
     5
170
     0
171
     0
290
     0
174
     0
 93
        1
 44
0.0
173
     0
291
     0
 45
0.0
1001
ACAD
1000
AcDbSavedByObjectVersion
1070
     0
  0
VISUALSTYLE
  5
F4
102
{ACAD_XDICTIONARY
360
BC94
102
}
102
{ACAD_REACTORS
330
EF
102
}
330
EF
100
AcDbVisualStyle
  2
Basic
 70
     7
 71
     1
 72
     0
 73
     1
 90
        0
 40
-0.6
 41
-30.0
 62
     5
 63
     7
 74
     0
 91
        4
 64
     7
 65
   257
 75
     1
175
     1
 42
1.0
 92
        8
 66
     7
 43
1.0
 76
     1
 77
     6
 78
     2
 67
     7
 79
     5
170
     0
171
     0
290
     0
174
     0
 93
        1
 44
0.0
173
     0
291
     1
 45
0.0
1001
ACAD
1000
AcDbSavedByObjectVersion
1070
     0
  0
VISUALSTYLE
  5
FB
102
{ACAD_XDICTIONARY
360
BCA2
102
}
102
{ACAD_REACTORS
330
EF
102
}
330
EF
100
AcDbVisualStyle
  2
Brighten
 70
    12
 71
     2
 72
     2
 73
     1
 90
        0
 40
-0.6
 41
-30.0
 62
     5
 63
     7
 74
     1
 91
        4
 64
     7
 65
   257
 75
     1
175
     1
 42
1.0
 92
        8
 66
     7
 43
1.0
 76
     1
 77
     6
 78
     2
 67
     7
 79
     5
170
     0
171
     0
290
     0
174
     0
 93
        1
 44
50.0
173
     0
291
     1
 45
0.0
1001
ACAD
1000
AcDbSavedByObjectVersion
1070
     0
  0
VISUALSTYLE
  5
FF
102
{ACAD_XDICTIONARY
360
BCAA
102
}
102
{ACAD_REACTORS
330
EF
102
}
330
EF
100
AcDbVisualStyle
  2
ColorChange
 70
    16
 71
     2
 72
     2
 73
     3
 90
        0
 40
-0.6
 41
-30.0
 62
     5
 63
     8
 74
     1
 91
        4
 64
     7
 65
   257
 75
     1
175
     1
 42
1.0
 92
        8
 66
     8
 43
1.0
 76
     1
 77
     6
 78
     2
 67
     7
 79
     5
170
     0
171
     0
290
     0
174
     0
 93
        1
 44
0.0
173
     0
291
     1
 45
0.0
1001
ACAD
1000
AcDbSavedByObjectVersion
1070
     0
  0
VISUALSTYLE
  5
F8
102
{ACAD_XDICTIONARY
360
BC9C
102
}
102
{ACAD_REACTORS
330
EF
102
}
330
EF
100
AcDbVisualStyle
  2
Conceptual
 70
     9
 71
     3
 72
     2
 73
     1
 90
        0
 40
-0.6
 41
-30.0
 62
     5
 63
     7
 74
     2
 91
        2
 64
     7
 65
   257
 75
     1
175
     1
 42
40.0
 92
        8
 66
     7
 43
1.0
 76
     1
 77
     6
 78
     2
 67
     7
 79
     3
170
     0
171
     0
290
     0
174
     0
 93
        1
 44
0.0
173
     0
291
     0
 45
0.0
1001
ACAD
1000
AcDbSavedByObjectVersion
1070
     0
  0
VISUALSTYLE
  5
FA
102
{ACAD_XDICTIONARY
360
BCA0
102
}
102
{ACAD_REACTORS
330
EF
102
}
330
EF
100
AcDbVisualStyle
  2
Dim
 70
    11
 71
     2
 72
     2
 73
     1
 90
        0
 40
-0.6
 41
-30.0
 62
     5
 63
     7
 74
     1
 91
        4
 64
     7
 65
   257
 75
     1
175
     1
 42
1.0
 92
        8
 66
     7
 43
1.0
 76
     1
 77
     6
 78
     2
 67
     7
 79
     5
170
     0
171
     0
290
     0
174
     0
 93
        1
 44
-50.0
173
     0
291
     1
 45
0.0
1001
ACAD
1000
AcDbSavedByObjectVersion
1070
     0
  0
VISUALSTYLE
  5
1E6
102
{ACAD_XDICTIONARY
360
BCB2
102
}
102
{ACAD_REACTORS
330
EF
102
}
330
EF
100
AcDbVisualStyle
  2
EdgeColorOff
 70
    22
 71
     2
 72
     2
 73
     0
 90
        0
 40
-0.6
 41
-30.0
 62
     5
 63
     7
 74
     1
 91
        4
 64
     7
 65
   257
 75
     1
175
     1
 42
1.0
 92
        8
 66
     7
 43
1.0
 76
     1
 77
     6
 78
     2
 67
     7
 79
     5
170
     0
171
     0
290
     0
174
     0
 93
        1
 44
0.0
173
     0
291
     1
 45
0.0
1001
ACAD
1000
AcDbSavedByObjectVersion
1070
     0
  0
VISUALSTYLE
  5
FE
102
{ACAD_XDICTIONARY
360
BCA8
102
}
102
{ACAD_REACTORS
330
EF
102
}
330
EF
100
AcDbVisualStyle
  2
Facepattern
 70
    15
 71
     2
 72
     2
 73
     1
 90
        0
 40
-0.6
 41
-30.0
 62
     5
 63
     7
 74
     1
 91
        4
 64
     7
 65
   257
 75
     1
175
     1
 42
1.0
 92
        8
 66
     7
 43
1.0
 76
     1
 77
     6
 78
     2
 67
     7
 79
     5
170
     0
171
     0
290
     0
174
     0
 93
        1
 44
0.0
173
     0
291
     1
 45
0.0
1001
ACAD
1000
AcDbSavedByObjectVersion
1070
     0
  0
VISUALSTYLE
  5
F0
102
{ACAD_XDICTIONARY
360
BC8C
102
}
102
{ACAD_REACTORS
330
EF
102
}
330
EF
100
AcDbVisualStyle
  2
Flat
 70
     0
 71
     2
 72
     1
 73
     1
 90
        2
 40
-0.6
 41
30.0
 62
     5
 63
     7
 74
     0
 91
        0
 64
     7
 65
   257
 75
     1
175
     1
 42
1.0
 92
        8
 66
     7
 43
1.0
 76
     1
 77
     6
 78
     2
 67
     7
 79
     5
170
     0
171
     0
290
     0
174
     0
 93
       13
 44
0.0
173
     0
291
     1
 45
0.0
1001
ACAD
1000
AcDbSavedByObjectVersion
1070
     0
  0
VISUALSTYLE
  5
F1
102
{ACAD_XDICTIONARY
360
BC8E
102
}
102
{ACAD_REACTORS
330
EF
102
}
330
EF
100
AcDbVisualStyle
  2
FlatWithEdges
 70
     1
 71
     2
 72
     1
 73
     1
 90
        2
 40
-0.6
 41
30.0
 62
     5
 63
     7
 74
     1
 91
        0
 64
     7
 65
   257
 75
     1
175
     1
 42
1.0
 92
        0
 66
   257
 43
1.0
 76
     1
 77
     6
 78
     2
 67
     7
 79
     5
170
     0
171
     0
290
     0
174
     0
 93
       13
 44
0.0
173
     0
291
     1
 45
0.0
1001
ACAD
1000
AcDbSavedByObjectVersion
1070
     0
  0
VISUALSTYLE
  5
F2
102
{ACAD_XDICTIONARY
360
BC90
102
}
102
{ACAD_REACTORS
330
EF
102
}
330
EF
100
AcDbVisualStyle
  2
Gouraud
 70
     2
 71
     2
 72
     2
 73
     1
 90
        2
 40
-0.6
 41
30.0
 62
     5
 63
     7
 74
     0
 91
        0
 64
     7
 65
   257
 75
     1
175
     1
 42
1.0
 92
        0
 66
     7
 43
1.0
 76
     1
 77
     6
 78
     2
 67
     7
 79
     5
170
     0
171
     0
290
     0
174
     0
 93
       13
 44
0.0
173
     0
291
     1
 45
0.0
1001
ACAD
1000
AcDbSavedByObjectVersion
1070
     0
  0
VISUALSTYLE
  5
F3
102
{ACAD_XDICTIONARY
360
BC92
102
}
102
{ACAD_REACTORS
330
EF
102
}
330
EF
100
AcDbVisualStyle
  2
GouraudWithEdges
 70
     3
 71
     2
 72
     2
 73
     1
 90
        2
 40
-0.6
 41
30.0
 62
     5
 63
     7
 74
     1
 91
        0
 64
     7
 65
   257
 75
     1
175
     1
 42
1.0
 92
        0
 66
   257
 43
1.0
 76
     1
 77
     6
 78
     2
 67
     7
 79
     5
170
     0
171
     0
290
     0
174
     0
 93
       13
 44
0.0
173
     0
291
     1
 45
0.0
1001
ACAD
1000
AcDbSavedByObjectVersion
1070
     0
  0
VISUALSTYLE
  5
F7
102
{ACAD_XDICTIONARY
360
BC9A
102
}
102
{ACAD_REACTORS
330
EF
102
}
330
EF
100
AcDbVisualStyle
  2
Hidden
 70
     6
 71
     1
 72
     2
 73
     2
 90
        0
 40
-0.6
 41
-30.0
 62
     5
 63
     7
 74
     2
 91
        2
 64
     7
 65
   257
 75
     2
175
     1
 42
40.0
 92
        0
 66
   257
 43
1.0
 76
     1
 77
     6
 78
     2
 67
     7
 79
     3
170
     0
171
     0
290
     0
174
     0
 93
        1
 44
0.0
173
     0
291
     0
 45
0.0
1001
ACAD
1000
AcDbSavedByObjectVersion
1070
     0
  0
VISUALSTYLE
  5
1E4
102
{ACAD_XDICTIONARY
360
BCAE
102
}
102
{ACAD_REACTORS
330
EF
102
}
330
EF
100
AcDbVisualStyle
  2
JitterOff
 70
    20
 71
     2
 72
     2
 73
     0
 90
        0
 40
-0.6
 41
-30.0
 62
     5
 63
     7
 74
     1
 91
        4
 64
     7
 65
   257
 75
     1
175
     1
 42
1.0
 92
       10
 66
     7
 43
1.0
 76
     1
 77
     6
 78
     2
 67
     7
 79
     5
170
     0
171
     0
290
     0
174
     0
 93
        1
 44
0.0
173
     0
291
     1
 45
0.0
1001
ACAD
1000
AcDbSavedByObjectVersion
1070
     0
  0
VISUALSTYLE
  5
FD
102
{ACAD_XDICTIONARY
360
BCA6
102
}
102
{ACAD_REACTORS
330
EF
102
}
330
EF
100
AcDbVisualStyle
  2
Linepattern
 70
    14
 71
     2
 72
     2
 73
     1
 90
        0
 40
-0.6
 41
-30.0
 62
     5
 63
     7
 74
     1
 91
        4
 64
     7
 65
   257
 75
     7
175
     7
 42
1.0
 92
        8
 66
     7
 43
1.0
 76
     1
 77
     6
 78
     2
 67
     7
 79
     5
170
     0
171
     0
290
     0
174
     0
 93
        1
 44
0.0
173
     0
291
     1
 45
0.0
1001
ACAD
1000
AcDbSavedByObjectVersion
1070
     0
  0
VISUALSTYLE
  5
1E5
102
{ACAD_XDICTIONARY
360
BCB0
102
}
102
{ACAD_REACTORS
330
EF
102
}
330
EF
100
AcDbVisualStyle
  2
OverhangOff
 70
    21
 71
     2
 72
     2
 73
     0
 90
        0
 40
-0.6
 41
-30.0
 62
     5
 63
     7
 74
     1
 91
        4
 64
     7
 65
   257
 75
     1
175
     1
 42
1.0
 92
        9
 66
     7
 43
1.0
 76
     1
 77
     6
 78
     2
 67
     7
 79
     5
170
     0
171
     0
290
     0
174
     0
 93
        1
 44
0.0
173
     0
291
     1
 45
0.0
1001
ACAD
1000
AcDbSavedByObjectVersion
1070
     0
  0
VISUALSTYLE
  5
F9
102
{ACAD_XDICTIONARY
360
BC9E
102
}
102
{ACAD_REACTORS
330
EF
102
}
330
EF
100
AcDbVisualStyle
  2
Realistic
 70
     8
 71
     2
 72
     2
 73
     0
 90
        2
 40
-0.6
 41
30.0
 62
     5
 63
     7
 74
     0
 91
        0
 64
     7
 65
   257
 75
     1
175
     1
 42
1.0
 92
        8
 66
   257
 43
1.0
 76
     1
 77
     6
 78
     2
 67
     7
 79
     3
170
     0
171
     0
290
     0
174
     0
 93
       13
 44
0.0
173
     0
291
     0
 45
0.0
1001
ACAD
1000
AcDbSavedByObjectVersion
1070
     0
  0
VISUALSTYLE
  5
1F3
102
{ACAD_XDICTIONARY
360
BCBC
102
}
102
{ACAD_REACTORS
330
EF
102
}
330
EF
100
AcDbVisualStyle
  2
Shaded
 70
    27
 71
     2
 72
     2
 73
     1
 90
        2
 40
-0.6
 41
30.0
 62
     5
 63
     7
 74
     0
 91
        4
 64
     7
 65
   257
 75
     1
175
     1
 42
1.0
 92
        8
 66
   257
 43
1.0
 76
     1
 77
     6
 78
     2
 67
     8
 79
     3
170
     0
171
     0
290
     0
174
     0
 93
        5
 44
0.0
173
     0
291
     0
 45
0.0
1001
ACAD
1000
AcDbSavedByObjectVersion
1070
     0
  0
VISUALSTYLE
  5
1F2
102
{ACAD_XDICTIONARY
360
BCBA
102
}
102
{ACAD_REACTORS
330
EF
102
}
330
EF
100
AcDbVisualStyle
  2
Shaded with edges
 70
    26
 71
     2
 72
     2
 73
     1
 90
        2
 40
-0.6
 41
30.0
 62
     5
 63
     7
 74
     1
 91
        2
 64
     7
 65
   257
 75
     2
175
     1
 42
1.0
 92
        8
 66
   257
 43
1.0
 76
     1
 77
     6
 78
     2
 67
     7
 79
     3
170
     0
171
     0
290
     0
174
     0
 93
        5
 44
0.0
173
     0
291
     0
 45
0.0
1001
ACAD
1000
AcDbSavedByObjectVersion
1070
     0
  0
VISUALSTYLE
  5
1EF
102
{ACAD_XDICTIONARY
360
BCB4
102
}
102
{ACAD_REACTORS
330
EF
102
}
330
EF
100
AcDbVisualStyle
  2
Shades of Gray
 70
    23
 71
     2
 72
     2
 73
     3
 90
        0
 40
-0.6
 41
-30.0
 62
     5
 63
     7
 74
     2
 91
        2
 64
     7
 65
     7
 75
     1
175
     1
 42
40.0
 92
        8
 66
     7
 43
1.0
 76
     1
 77
     6
 78
     2
 67
     7
 79
     3
170
     0
171
     0
290
     0
174
     0
 93
        1
 44
0.0
173
     0
291
     0
 45
0.0
1001
ACAD
1000
AcDbSavedByObjectVersion
1070
     0
  0
VISUALSTYLE
  5
1F0
102
{ACAD_XDICTIONARY
360
BCB6
102
}
102
{ACAD_REACTORS
330
EF
102
}
330
EF
100
AcDbVisualStyle
  2
Sketchy
 70
    24
 71
     1
 72
     2
 73
     2
 90
        0
 40
-0.6
 41
-30.0
 62
     5
 63
     7
 74
     2
 91
        2
 64
     7
 65
     7
 75
     1
175
     1
 42
40.0
 92
       11
 66
     7
 43
1.0
 76
     1
 77
     6
 78
     2
 67
     7
 79
     6
170
     0
171
     0
290
     0
174
     0
 93
        1
 44
0.0
173
     0
291
     0
 45
0.0
1001
ACAD
1000
AcDbSavedByObjectVersion
1070
     0
  0
VISUALSTYLE
  5
FC
102
{ACAD_XDICTIONARY
360
BCA4
102
}
102
{ACAD_REACTORS
330
EF
102
}
330
EF
100
AcDbVisualStyle
  2
Thicken
 70
    13
 71
     2
 72
     2
 73
     1
 90
        0
 40
-0.6
 41
-30.0
 62
     5
 63
     7
 74
     1
 91
        4
 64
     7
 65
   257
 75
     1
175
     1
 42
1.0
 92
       12
 66
     7
 43
1.0
 76
     1
 77
     6
 78
     2
 67
     7
 79
     5
170
     0
171
     0
290
     0
174
     0
 93
        1
 44
0.0
173
     0
291
     1
 45
0.0
1001
ACAD
1000
AcDbSavedByObjectVersion
1070
     0
  0
VISUALSTYLE
  5
F6
102
{ACAD_XDICTIONARY
360
BC98
102
}
102
{ACAD_REACTORS
330
EF
102
}
330
EF
100
AcDbVisualStyle
  2
Wireframe
 70
     5
 71
     0
 72
     2
 73
     0
 90
        0
 40
-0.6
 41
-30.0
 62
     5
 63
     7
 74
     1
 91
        4
 64
     7
 65
   257
 75
     1
175
     1
 42
1.0
 92
        0
 66
   257
 43
1.0
 76
     1
 77
     6
 78
     2
 67
     7
 79
     3
170
     0
171
     0
290
     0
174
     0
 93
        1
 44
0.0
173
     0
291
     0
 45
0.0
1001
ACAD
1000
AcDbSavedByObjectVersion
1070
     0
  0
VISUALSTYLE
  5
1F1
102
{ACAD_XDICTIONARY
360
BCB8
102
}
102
{ACAD_REACTORS
330
EF
102
}
330
EF
100
AcDbVisualStyle
  2
X-Ray
 70
    25
 71
     2
 72
     2
 73
     1
 90
        1
 40
0.5
 41
-30.0
 62
     5
 63
     7
 74
     1
 91
        0
 64
     7
 65
   257
 75
     1
175
     1
 42
1.0
 92
        8
 66
     7
 43
1.0
 76
     1
 77
     6
 78
     2
 67
     7
 79
     3
170
     0
171
     0
290
     0
174
     0
 93
       13
 44
0.0
173
     0
291
     0
 45
0.0
1001
ACAD
1000
AcDbSavedByObjectVersion
1070
     0
  0
DICTIONARYVAR
  5
146
102
{ACAD_REACTORS
330
5E
102
}
330
5E
100
DictionaryVariables
280
     0
  1
1:1
  0
DICTIONARYVAR
  5
259
102
{ACAD_REACTORS
330
5E
102
}
330
5E
100
DictionaryVariables
280
     0
  1
3.500000
  0
DICTIONARYVAR
  5
25A
102
{ACAD_REACTORS
330
5E
102
}
330
5E
100
DictionaryVariables
280
     0
  1
acadiso.lin
  0
DICTIONARYVAR
  5
145
102
{ACAD_REACTORS
330
5E
102
}
330
5E
100
DictionaryVariables
280
     0
  1
STANDARD
  0
DICTIONARYVAR
  5
84
102
{ACAD_REACTORS
330
5E
102
}
330
5E
100
DictionaryVariables
280
     0
  1
STANDARD
  0
DICTIONARYVAR
  5
227
102
{ACAD_REACTORS
330
5E
102
}
330
5E
100
DictionaryVariables
280
     0
  1
Metric50
  0
DICTIONARYVAR
  5
228
102
{ACAD_REACTORS
330
5E
102
}
330
5E
100
DictionaryVariables
280
     0
  1
Metric50
  0
DICTIONARYVAR
  5
5F
102
{ACAD_REACTORS
330
5E
102
}
330
5E
100
DictionaryVariables
280
     0
  1
2
  0
DICTIONARYVAR
  5
63
102
{ACAD_REACTORS
330
5E
102
}
330
5E
100
DictionaryVariables
280
     0
  1
1
  0
DICTIONARYVAR
  5
BC2D
102
{ACAD_REACTORS
330
5E
102
}
330
5E
100
DictionaryVariables
280
     0
  1
0
  0
DICTIONARYVAR
  5
1AE
102
{ACAD_REACTORS
330
5E
102
}
330
5E
100
DictionaryVariables
280
     0
  1
0
  0
DICTIONARYVAR
  5
1AF
102
{ACAD_REACTORS
330
5E
102
}
330
5E
100
DictionaryVariables
280
     0
  1
0
  0
DICTIONARYVAR
  5
BC2B
102
{ACAD_REACTORS
330
5E
102
}
330
5E
100
DictionaryVariables
280
     0
  1
2
  0
DICTIONARYVAR
  5
BC2A
102
{ACAD_REACTORS
330
5E
102
}
330
5E
100
DictionaryVariables
280
     0
  1
1
  0
DICTIONARYVAR
  5
BC7D
102
{ACAD_REACTORS
330
5E
102
}
330
5E
100
DictionaryVariables
280
     0
  1
80.000000
  0
DICTIONARYVAR
  5
BC7C
102
{ACAD_REACTORS
330
5E
102
}
330
5E
100
DictionaryVariables
280
     0
  1
5.000000
  0
DICTIONARYVAR
  5
BC2C
102
{ACAD_REACTORS
330
5E
102
}
330
5E
100
DictionaryVariables
280
     0
  1
127
  0
DICTIONARYVAR
  5
BC7E
102
{ACAD_REACTORS
330
5E
102
}
330
5E
100
DictionaryVariables
280
     0
  1
2
  0
DICTIONARY
  5
BCC0
330
21C
100
AcDbDictionary
280
     1
281
     1
  3
ACAD_XREC_ROUNDTRIP
360
BCC1
  0
DICTIONARY
  5
BC85
330
D3
100
AcDbDictionary
280
     1
281
     1
  3
ACAD_XREC_ROUNDTRIP
360
BC86
  0
DICTIONARY
  5
BC87
330
D7
100
AcDbDictionary
280
     1
281
     1
  3
ACAD_XREC_ROUNDTRIP
360
BC88
  0
DICTIONARY
  5
BC82
330
22
100
AcDbDictionary
280
     1
281
     1
  3
ACAD_XREC_ROUNDTRIP
360
BC83
  0
DICTIONARY
  5
1F9
330
ED
100
AcDbDictionary
280
     1
281
     1
  3
ACAD_XREC_ROUNDTRIP
360
BC8A
  3
FBXASSET
360
1FA
  0
DICTIONARY
  5
1F7
330
EC
100
AcDbDictionary
280
     1
281
     1
  3
ACAD_XREC_ROUNDTRIP
360
BC89
  3
FBXASSET
360
1F8
  0
DICTIONARY
  5
173
330
EE
100
AcDbDictionary
280
     1
281
     1
  3
ACAD_XREC_ROUNDTRIP
360
BC8B
  3
BUMPTILE
360
175
  3
DIFFUSETILE
360
174
  3
FBXASSET
360
1FB
  3
OPACITYTILE
360
176
  3
REFLECTIONTILE
360
177
  0
DICTIONARY
  5
BCAC
330
12E
100
AcDbDictionary
280
     1
281
     1
  3
ACAD_XREC_ROUNDTRIP
360
BCAD
  0
DICTIONARY
  5
BCBE
330
21A
100
AcDbDictionary
280
     1
281
     1
  3
ACAD_XREC_ROUNDTRIP
360
BCBF
  0
DICTIONARY
  5
162
330
7F
100
AcDbDictionary
280
     1
281
     1
  3
ACAD_ROUNDTRIP_2008_TABLESTYLE_CELLSTYLEMAP
360
BC7F
  3
ACAD_XREC_ROUNDTRIP
360
BC84
  0
DICTIONARY
  5
BC96
330
F5
100
AcDbDictionary
280
     1
281
     1
  3
ACAD_XREC_ROUNDTRIP
360
BC97
  0
DICTIONARY
  5
BC94
330
F4
100
AcDbDictionary
280
     1
281
     1
  3
ACAD_XREC_ROUNDTRIP
360
BC95
  0
DICTIONARY
  5
BCA2
330
FB
100
AcDbDictionary
280
     1
281
     1
  3
ACAD_XREC_ROUNDTRIP
360
BCA3
  0
DICTIONARY
  5
BCAA
330
FF
100
AcDbDictionary
280
     1
281
     1
  3
ACAD_XREC_ROUNDTRIP
360
BCAB
  0
DICTIONARY
  5
BC9C
330
F8
100
AcDbDictionary
280
     1
281
     1
  3
ACAD_XREC_ROUNDTRIP
360
BC9D
  0
DICTIONARY
  5
BCA0
330
FA
100
AcDbDictionary
280
     1
281
     1
  3
ACAD_XREC_ROUNDTRIP
360
BCA1
  0
DICTIONARY
  5
BCB2
330
1E6
100
AcDbDictionary
280
     1
281
     1
  3
ACAD_XREC_ROUNDTRIP
360
BCB3
  0
DICTIONARY
  5
BCA8
330
FE
100
AcDbDictionary
280
     1
281
     1
  3
ACAD_XREC_ROUNDTRIP
360
BCA9
  0
DICTIONARY
  5
BC8C
330
F0
100
AcDbDictionary
280
     1
281
     1
  3
ACAD_XREC_ROUNDTRIP
360
BC8D
  0
DICTIONARY
  5
BC8E
330
F1
100
AcDbDictionary
280
     1
281
     1
  3
ACAD_XREC_ROUNDTRIP
360
BC8F
  0
DICTIONARY
  5
BC90
330
F2
100
AcDbDictionary
280
     1
281
     1
  3
ACAD_XREC_ROUNDTRIP
360
BC91
  0
DICTIONARY
  5
BC92
330
F3
100
AcDbDictionary
280
     1
281
     1
  3
ACAD_XREC_ROUNDTRIP
360
BC93
  0
DICTIONARY
  5
BC9A
330
F7
100
AcDbDictionary
280
     1
281
     1
  3
ACAD_XREC_ROUNDTRIP
360
BC9B
  0
DICTIONARY
  5
BCAE
330
1E4
100
AcDbDictionary
280
     1
281
     1
  3
ACAD_XREC_ROUNDTRIP
360
BCAF
  0
DICTIONARY
  5
BCA6
330
FD
100
AcDbDictionary
280
     1
281
     1
  3
ACAD_XREC_ROUNDTRIP
360
BCA7
  0
DICTIONARY
  5
BCB0
330
1E5
100
AcDbDictionary
280
     1
281
     1
  3
ACAD_XREC_ROUNDTRIP
360
BCB1
  0
DICTIONARY
  5
BC9E
330
F9
100
AcDbDictionary
280
     1
281
     1
  3
ACAD_XREC_ROUNDTRIP
360
BC9F
  0
DICTIONARY
  5
BCBC
330
1F3
100
AcDbDictionary
280
     1
281
     1
  3
ACAD_XREC_ROUNDTRIP
360
BCBD
  0
DICTIONARY
  5
BCBA
330
1F2
100
AcDbDictionary
280
     1
281
     1
  3
ACAD_XREC_ROUNDTRIP
360
BCBB
  0
DICTIONARY
  5
BCB4
330
1EF
100
AcDbDictionary
280
     1
281
     1
  3
ACAD_XREC_ROUNDTRIP
360
BCB5
  0
DICTIONARY
  5
BCB6
330
1F0
100
AcDbDictionary
280
     1
281
     1
  3
ACAD_XREC_ROUNDTRIP
360
BCB7
  0
DICTIONARY
  5
BCA4
330
FC
100
AcDbDictionary
280
     1
281
     1
  3
ACAD_XREC_ROUNDTRIP
360
BCA5
  0
DICTIONARY
  5
BC98
330
F6
100
AcDbDictionary
280
     1
281
     1
  3
ACAD_XREC_ROUNDTRIP
360
BC99
  0
DICTIONARY
  5
BCB8
330
1F1
100
AcDbDictionary
280
     1
281
     1
  3
ACAD_XREC_ROUNDTRIP
360
BCB9
  0
XRECORD
  5
BCC1
102
{ACAD_REACTORS
330
BCC0
102
}
330
BCC0
100
AcDbXrecord
280
     1
102
DISPLAYNAME
  1
Metric50
102
FLAGS
 90
        0
  0
XRECORD
  5
BC86
102
{ACAD_REACTORS
330
BC85
102
}
330
BC85
100
AcDbXrecord
280
     1
102
SHADEPLOT
 70
     0
102
SHADEPLOTRESLEVEL
 70
     2
102
SHADEPLOTCUSTOMDPI
 70
   300
  0
XRECORD
  5
BC88
102
{ACAD_REACTORS
330
BC87
102
}
330
BC87
100
AcDbXrecord
280
     1
102
SHADEPLOT
 70
     0
102
SHADEPLOTRESLEVEL
 70
     2
102
SHADEPLOTCUSTOMDPI
 70
   300
  0
XRECORD
  5
BC83
102
{ACAD_REACTORS
330
BC82
102
}
330
BC82
100
AcDbXrecord
280
     1
102
SHADEPLOT
 70
     0
102
SHADEPLOTRESLEVEL
 70
     2
102
SHADEPLOTCUSTOMDPI
 70
   300
  0
XRECORD
  5
BC8A
102
{ACAD_REACTORS
330
1F9
102
}
330
1F9
100
AcDbXrecord
280
     1
102
MATERIAL
148
0.0
149
0.0
149
0.0
 93
        0
 94
       63
282
     0
 72
     1
 77
     1
171
     1
175
     1
179
     1
273
     0
  0
XRECORD
  5
1FA
102
{ACAD_REACTORS
330
1F9
102
}
330
1F9
100
AcDbXrecord
280
     1
 70
     1
 90
429727718
  1
D62C5603-E3A1-4AEA-B7FB-FE5D8D0755AF
310
504B03040A0000080000CC70623B3DEE336E79000000790000001B0000006175746F6465736B2D64657369676E2D7061636B6167652E786D6C3C3F786D6C2076657273696F6E3D22312E302220656E636F64696E673D227574662D3822203F3E3C666F726D6174733E3C666F726D61743E687474703A2F2F736368656D612E
310
6175746F6465736B2E636F6D2F64657369676E2D7061636B6167652F323030393C2F666F726D61743E3C2F666F726D6174733E504B0304140006080800CC70623BD486FD9CA0000000F4000000130000005B436F6E74656E745F54797065735D2E786D6C7D8EC10E82300C865F65E91D8A1E8C310C0EEA1BF002731658846E
310
D98AC1B77784ABF1D8FE5FBFBF75BBCE937A534CCEB38643598122B6FEE978D0B0485F9C41B54DDD7D022595594E1A469170414C76A4D9A4D207E29CF43ECE46F218070CC6BECC4078ACAA135ACF422C856C0E68EA1BF5669944DDD7BCDE7B1F8E415D77AECB980613C2E4AC91FC167A2B244592486606FC29C8FD7F045B9A
310
EF7053A7E60B504B0304140006080800CC70623B853B8169EB0000007C01000008000000636F72652E786D6C8D90416EC3201045AF62CDB6C206821CC7C244919D9CA01740401C94182C03558F5F9C3852BBEB6A467FFE9B197D7EFC9E1EC5975982F5AE035262288C535E5B377690E21535501C055FBC8FBF6C503839990E
310
5619041F179FE64D52DE45E362569DD7661365082642A11EB9E920A89B99642953CC8E702F67A9EE7234257977194EC9EAE275C4EABCCF5EAD5940D4AC6F0E35A568B8F43562CD7046CD199FD07E60174276A7BE677B5EADB0E0D14EEFFB6A31321A0D82627C4084204C3F096B71DD52F6819B16635EADF63F509AF53FA164
310
5DDCD1EDDD17164090FCC8732078B56691CB33A85CD7DCC40F504B0304140006080800CC70623B55019EA25F0000007C00000007000000636E782E786D6C4DCB3B0E80201045D1AD90E915ED2CF8AC45050C11660C8261F98AB1B07AC9C97D42D718D865D3E909258CFD00CCE24AC6E326A164D74DC0B4128928FF32603847
310
2BA13128B1252AC747C6BAB984FC68F0B87FE8960A5C09FE86CFB69FBA01504B0304140006080800CC70623BDBABAAF470010000D40300000C0000006662782F636F72652E786D6CC553D16E823014FD95A6AF4B694182CC941A83FA05FB810A9511A125A5257EFE2E82712ECEB8A7F100CD39F7F69E734AF9FADC366850B6
310
AF8DCE7018308C942E4C59EB2AC3DE1D498AD15A706B8CFB56869196ADCAF00863C12B6B7C374385D14E6907A836A59A41D9F7CA615434B0C8705F7CAA5606D23BA8E84F41278B93AC54100640439DE0BDB320004D43C63716C7C399D30917DCFBBA9CD9BA8469F5B156168B24CED3F7248AC8769F27244EB73B92EED8862C
310
B7F13E0C179B3C8F979C8ECD82BBBABDAA2BAC924E9558448CBD9330242CFA08E3154B5651FCC6D215639C8EE5774DBE2B5F6CF2B5768B68963BB5F5588420E442FC700B1139D4CB01F450C1E918227C2E09DF070D8140C84E1E9AAB8F1340832A9CB13130A5F1376A908D57309505ECF2A0DF179C4E9D30F5B239B87E3823
310
7A79C6F31DE1A8A5AEC08474B03C7837EAE4938639B44E5932B833D2C6B6B279CDC613877FA26EE21F4A2A4C63EC7F29A2F301D1F9F7A0E37D145F504B0304140006080800CC70623B9C113CC27E0000009D0000000B0000006662782F636E782E786D6C4DCCDF0A83201C86E15B91DFB94BFB330DD428C8FB886521330DA7
310
6397BF1A1DECE883878F57749FCDA1B7892F1BBC047A23808C7F84D9FA55424E0BE6803A256208E9EF06C84F9B91703228B1C690F78B66B34CD9A5439DF5CF0BFBF65E35BCA1B8D6A5C6F540381E886698B5741C695F9503EBA150A2F8958E3DC3EA0B504B0304140006080800CC70623B7DF2F77C2A010000120200003100
310
00006662782F41393633353835312D344632462D344230382D423046372D3739314545314133324237412F636F72652E786D6C8D51DB8EC22014FC15C2939B0D2DB4B45643319AE817EC0F6041255A68B86CFCFC856D4D76DF7CE190393373060EDB3DC707F856CE6B6B7A480A0C81328395DA5C7B18C3057510EC3873D686
310
3F34088C18550F330C39BB3A1BA7051AAC09CA84841A2BD5020AEF55806078A44B0FFD7053A328440C89E1EFC52486BBB8AA8214A99D789CF9E05200300FC927E4FB4D5B375D43103D5527440FB843077C5AA3F5861C8F645F5787F59E95B390B318B55CE45AA638FAA2957BD7248B390B7A7CC51F9C124149C82B8C378810
310
84AB2F42B7B8DD56F413775B8C5999E9FF4471926F8AA236A1AE96B8B3CC434E5839373893369E1FAF30EA395917409EB7F26AF8801C171837A4A6AC9C89E9F9C9B1A58BA30FD6A5EF5DDDCF894B9AD9B6A59C957943A9FCAE2FD5BC4DFE03504B0304140006080800CC70623BAD7543B64E01000033030000300000006662
310
782F41393633353835312D344632462D344230382D423046372D3739314545314133324237412F636E782E786D6CD593CD6EC32010845F0571AD6CE3D48AD20813A9873E410FBD12D82434182C7EAAE6EDBB2424CD25871E7B41D6EC30B3FA84F9E67BB2E40B4234DE8DB46F1925E094D7C6ED479AD3AE5951B2113C789FEE
310
6C943839C1488B4C05DF079FE72A69D8C96C13AAD6B8631503449F83828872B949AC57D26200B826A308D316B4064D6E46FCDA41C05550DC9E483A00797BFD207EFB092A45DE9514C1BBD22178396BD39D891265658C238DEA00936C654E5E433CB65A26D9F6EDB5EBC14EBF49A45CB856E66048291F6939A9A81BB5C89177
310
38143CA680F4AA299D66A042CEB3354A2684DC9D8D178FE0D9B8B41CAAD720F880EE7EF93C0C18769E099ECC04D5A102C8049A8A05632F4DDF376CF1DE0F6BB65C2F8627B65A33C6BB62177CEBBDAD973006829F89F22E814B54F4BC2BE347F8AA8F681390B50FA73F804400B5F542E796F19FF974E7F78DB802FE05E20750
310
4B0304140006080800CC70623BE75B7789680500003C100000340000006662782F41393633353835312D344632462D344230382D423046372D3739314545314133324237412F6F626A656374732E786D6CAD575B8F9B3818FD2B887D06C22499CB8AA1CA655245D5B455A356FB305264C061D8018C6C3393D95FBFC7600890
310
A4CD5EF210B0B1BFEBF98E3F7B1FF6596ABC522E1296DF9BAE3D320D9A872C4AF2F8DE2CE5CEBA358D0FBEC719939D65A691938CDE9B6ADAF4BD98B3B2D05311DD91329583D9D5FC0F438434A7A611A644887B5384CF34233629258BA878B12322891DEFF6B66BD70BFB62634E8AE781D082709A4B588AF91C528CDA28B73F
310
1C998EEF39EABBEFA97FBD6A7C7E9553F9D3D79FE442923C3C523610337627CB87ABE99D359D4CC6D6E4FACAB5E6ABF9D2726FC6A3C5F56271377BB88362213924694B38DD99FE47C48627A1E7D49F5A8BB5E1A74C0A599ED3B0F21F1E56366B89112D681E218F0915D0D6F17AD41FBA2A369DCF6335D62ABBD39779D5DDD1
310
11D4D8DE3CBB96B2E04FB8202E41051754A1AA8E8F76B4C6DFE810B580B1547F4B84911149794252234D024EF8BBE963A95AE27B3D310A9D5C215C7960FAEE415ED75694C6AFB17BCACA5D99A60A9AA65F217B0BFC53292ACB92BF283FAD0D3621576592CB5BED907C2FA8E9DF794E35E97BEA31BED21FEB401ABB94C44839
310
DCACBF0E1C5DA8DA5B2F4DFFD32AD86F543D9E565E7056502E157C00AD2671CD534549AB752FCA9CDA00677A313F04E51B22FF19E57B300579E3C97EB29F682D92935CEC18CF901B7B54FD8C51F362B56FC72FE0B3C1EAE335EDCCBF5AEC39ADB17DC238973F804BA5E6F6BFE7AF1FB32E523BE9F3BD571418E3631DCA4D48
310
5250CF639223210A9446CA30052EDF057BD35F8329C1ECD84552BF0DC8D18BE7BCE23BFE6BD960AB4A7DE79923A103BEBD80F911CBAA2C60DB19B01CF164A5583B772EE6D3FFA56666CBCDA74DC97724A48F9A58967497E489C4D979006FD7A05E227A1EBDD0F737C623387A9C844D3709995625106D157315F8B8392CD4E0
310
A0B9A720C4BE9829CEF37EA1E13111214D53925356365ADA634861B52519DD27A00AEB808EAF0628E6F435519D446F45CF2C9CF5214F0A15B2F6D06B79DA3EE3CBF7F56780D2F4E7EF73A0F5E5B02A38D07DC852C6B7C1FBB6664213E0C39E3EBA7FF4E1AD23EA2829407C85E586727488B751B2DB9502BC7B228A3FD68B6E
310
A65A22397E690AA8D158D7E404EC8CDA235CC3B7D1898680131CEC2CDF2638C65196279577750F15884AEE19F94199155B92B13297978469D4F8D358DF0AEF7631E28DC8F0D9F437D5D39A83B2231A1D52D543813A824EF8D44BCFF2FA6A31BD1E8DAD87F1CCB526B3879935BF59CDADD5C37479BB1CDD4CA7B3556B516589
310
EF352754B706114D9C885EC9131DE6EFEB43D99AFE2391C2F958179413D7CFEF6B1B6DB1E7600F00DE6E5C67454A339A4BA2E0FBA85ED26F045D454F463DBFCE484C2F90F2E5E3666003662ED8F755951A7D1BECD5B30B550B2785C8E7320B7292A4838DDA71BBC863ED7613CAF659337A3354231D4FF4A182A54904C2898C
310
98B28C4AD0CE056CCF332A80986E571EE9DBC305BB5FEB7E509220A58D25CF042D712A806AC0AD0C657FDEF80D2D9CEAA2EE4D1C76F60BFE74219A06527D6F82DF6412526107381E55E353090704D085B52408A8913C4ED159D79BDA71BB4BC506F4831350EB6F975CD22D69BF7AC49B91A2C0A9DDA3D5CA36AD20FC478E37
310
E61844E2352865EBCB61A275A65283CAAA9DD27703B4102F5AF51EF5F573B75CBB5AD38BC845F7A49F82A0966A49C2E3EA5EA0ECD326CD965F1DB402C6FA8B51A4658C5C5E2EC9E214602E55810345408596591009A82E7E7FFACA19EEA299B14A0081A705CB3296EBC14CDF658DCD336EA6D1136881AAEB87B81AB9EE53D5
310
F5EB8BC8362082DA24122F98680A4E7930C01A0079749CEA14382A0783E5EBA5A10F8C098456A03D6A4AEB6BB881E2513747552A5DB22C7EDAF83BD5528081A365F7FF06504B0304140006080000CC70623B000000000000000000000000350000006662782F41393633353835312D344632462D344230382D423046372D37
310
39314545314133324237412F76657274696365732E62696E504B0304140006080800CC70623BF270F1330600000004000000360000006662782F41393633353835312D344632462D344230382D423046372D3739314545314133324237412F747269616E676C65732E62696E636660600000504B0304140006080000CC7062
310
3B000000000000000000000000370000006662782F41393633353835312D344632462D344230382D423046372D3739314545314133324237412F617474726962757465732E62696E504B0304140006080800CC70623B08DA0BD19000000041010000360000006662782F41393633353835312D344632462D344230382D4230
310
46372D3739314545314133324237412F6469726563746F72792E786D6C858F410AC3201045AF22B36F53E9A60B35CBEEBAE80D244E44489C6234F4F835464A48035D0DF398FF9F8AF63D0E6CC63039F212F8F9020C7D47C6792B21C5FE7403D62A1188E2E60C98D7234A5830286103A55745067B9D86B8A3CF9C7F90C11DE6
310
07FB144396D7B6A82D282E9A152AD114D5EF2CB866EEE831B8EEA07A7BB5A8D7D61A2BAAEB7FD5F70921FF497D00504B0304140006080800CC70623BEDD1DC58FD000000A00100003B0000006662782F41393633353835312D344632462D344230382D423046372D3739314545314133324237412F7265736F75726365732F
310
636F72652E786D6C8D504B6E833010BD0A9A6D65B00922041947112427E8052C33A156828DFCA97AFC9A40A576D7CDCCE87D344F8F9FBFE667F689CE6B6B3A6039850C8DB2A336530731DC4903D95970676DF82583CCC8193B5861107C72362E3BA4AC096842428D1D7107A5F7182053CF7474E0D507CE32973124857FE48B
310
540F3961CEF244279DE03EB81420DB9EAC1384436FA353E879B1B182C7A8C75DA3C7F453DF353A1075D537A7BA6464B8F535A99AE14A9A2BBD90E350DD183B5CFABE3AF262350B1EF4FC9351399401471025A527C218A1E53BAB5A5AB765F5469B96525EACF23FA6B88CFF34456DC2A1DCE36E360F82A5202F42F062ED2BAD
310
579969AFDD8A6F504B010214000A0000080000CC70623B3DEE336E79000000790000001B00000000000000000000000000000000006175746F6465736B2D64657369676E2D7061636B6167652E786D6C504B01021400140006080800CC70623BD486FD9CA0000000F40000001300000000000000000000000000B20000005B
310
436F6E74656E745F54797065735D2E786D6C504B01021400140006080800CC70623B853B8169EB0000007C010000080000000000000000000000000083010000636F72652E786D6C504B01021400140006080800CC70623B55019EA25F0000007C000000070000000000000000000000000094020000636E782E786D6C504B
310
01021400140006080800CC70623BDBABAAF470010000D40300000C00000000000000000000000000180300006662782F636F72652E786D6C504B01021400140006080800CC70623B9C113CC27E0000009D0000000B00000000000000000000000000B20400006662782F636E782E786D6C504B01021400140006080800CC70
310
623B7DF2F77C2A010000120200003100000000000000000000000000590500006662782F41393633353835312D344632462D344230382D423046372D3739314545314133324237412F636F72652E786D6C504B01021400140006080800CC70623BAD7543B64E010000330300003000000000000000000000000000D2060000
310
6662782F41393633353835312D344632462D344230382D423046372D3739314545314133324237412F636E782E786D6C504B01021400140006080800CC70623BE75B7789680500003C10000034000000000000000000000000006E0800006662782F41393633353835312D344632462D344230382D423046372D3739314545
310
314133324237412F6F626A656374732E786D6C504B01021400140006080000CC70623B0000000000000000000000003500000000000000000000000000280E00006662782F41393633353835312D344632462D344230382D423046372D3739314545314133324237412F76657274696365732E62696E504B01021400140006
310
080800CC70623BF270F133060000000400000036000000000000000000000000007B0E00006662782F41393633353835312D344632462D344230382D423046372D3739314545314133324237412F747269616E676C65732E62696E504B01021400140006080000CC70623B0000000000000000000000003700000000000000
310
000000000000D50E00006662782F41393633353835312D344632462D344230382D423046372D3739314545314133324237412F617474726962757465732E62696E504B01021400140006080800CC70623B08DA0BD1900000004101000036000000000000000000000000002A0F00006662782F41393633353835312D344632
310
462D344230382D423046372D3739314545314133324237412F6469726563746F72792E786D6C504B01021400140006080800CC70623BEDD1DC58FD000000A00100003B000000000000000000000000000E1000006662782F41393633353835312D344632462D344230382D423046372D3739314545314133324237412F7265
310
736F75726365732F636F72652E786D6C504B0506000000000E000E0080040000641100000000
  0
XRECORD
  5
BC89
102
{ACAD_REACTORS
330
1F7
102
}
330
1F7
100
AcDbXrecord
280
     1
102
MATERIAL
148
0.0
149
0.0
149
0.0
 93
        0
 94
       63
282
     0
 72
     1
 77
     1
171
     1
175
     1
179
     1
273
     0
  0
XRECORD
  5
1F8
102
{ACAD_REACTORS
330
1F7
102
}
330
1F7
100
AcDbXrecord
280
     1
 70
     1
 90
429727718
  1
30362254-06B7-45E0-A893-8CFA70E3D6BC
310
504B03040A0000080000CC70623B3DEE336E79000000790000001B0000006175746F6465736B2D64657369676E2D7061636B6167652E786D6C3C3F786D6C2076657273696F6E3D22312E302220656E636F64696E673D227574662D3822203F3E3C666F726D6174733E3C666F726D61743E687474703A2F2F736368656D612E
310
6175746F6465736B2E636F6D2F64657369676E2D7061636B6167652F323030393C2F666F726D61743E3C2F666F726D6174733E504B0304140006080800CC70623BD486FD9CA0000000F4000000130000005B436F6E74656E745F54797065735D2E786D6C7D8EC10E82300C865F65E91D8A1E8C310C0EEA1BF002731658846E
310
D98AC1B77784ABF1D8FE5FBFBF75BBCE937A534CCEB38643598122B6FEE978D0B0485F9C41B54DDD7D022595594E1A469170414C76A4D9A4D207E29CF43ECE46F218070CC6BECC4078ACAA135ACF422C856C0E68EA1BF5669944DDD7BCDE7B1F8E415D77AECB980613C2E4AC91FC167A2B244592486606FC29C8FD7F045B9A
310
EF7053A7E60B504B0304140006080800CC70623B1EC5D7A3EB0000007C01000008000000636F72652E786D6C8D90416EC3201045AF82665B6103C6756C6122AB4D4ED00B204C5C94182C03558F5F9C3852BBEB6A467FFE9B197D71FC9E6FE8CBACC17AD7032D0820E3B41FAD9B7A48F1820F808E52ACDEC75F36404ECDA687
310
4D0629A6D5A76597B477D1B89855E747B38B2A041301E95B6E7A08FAD3CCAA50296647B8168BD2573599823EBB0CA76447F43862C7BCCF5EAC59410E4DDD9C7973C2755553CCCFA4C603E3040F1565ED3B1FDE4E432BCA0D9622DAF9795FAF464533826484B498524CD807E51D79ED187F21878E10516EF63F505AC67F42C9
310
BA58B1FDDD071640D2FCC87D2045B96591CB3DA85CB7DCE40F504B0304140006080800CC70623B55019EA25F0000007C00000007000000636E782E786D6C4DCB3B0E80201045D1AD90E915ED2CF8AC45050C11660C8261F98AB1B07AC9C97D42D718D865D3E909258CFD00CCE24AC6E326A164D74DC0B4128928FF32603847
310
2BA13128B1252AC747C6BAB984FC68F0B87FE8960A5C09FE86CFB69FBA01504B0304140006080800CC70623B8C9102E971010000D40300000C0000006662782F636F72652E786D6CC5535B6E833010BC8AE5DF0A6C08340F1947A84D4ED00B38C6A128602363A31CBFCB234A53A551FA553EC09AD9F5CE8C31DB9E9B1AF5CA
310
7695D1198E428A91D2D214952E33ECDD315861B4E5CC1AE3BE9561A445A3323CC098B3D21ADFCE9034DA29ED00D5A6503328BA4E398C640D8B0C77F253352214DE4145770A5B214FA2546114020D759C75CE8200340D19DE981F0F6746269C33EFAB6266AB02A655C74A59CCF365BADC27CB5D902ED22848F6340DF238A141
310
BE88E2F57B92BFEDF23523433367AE6A2EEAA455C2A902F398D2751045018D3FA264435F3771F242571B4A1919CA6F9A7C5B3CD9E42BED16F12C776AEB308F40C848FC700B1139D4891EF410CEC810227CC6846F8386402064270EF5C5C709A05E49676C024C61FC95EA45ED154CA5211D1FF4FB8291A913A68E9B83EBBB33
310
E2A7673CDE118E5AE8124C0807CB8377834E366998436B950D7A7746DAD846D4CFD978E0F04FD455FC5D49D2D4C6FE9722321F10997F0F32DC47FE05504B0304140006080800CC70623BFFEA85907E0000009D0000000B0000006662782F636E782E786D6C4DCCD10A83201886E15B91FFDC95D95A811AB6F23E625948A6C3
310
E9D8E5AF46073BFAE0E1E365ED67B3E8ADC3CB78C7815C7240DA3DFC64DCC221C519D7805AC182F7F1EF06C88D9BE6703008B6049F9E274D7A1E938DBB5AE3D6131B2589BA0D3D965551E0B2EA732C9B9A624AAEB41E3A557677029960D9AFB4EF11165F504B0304140006080800CC70623B4FEEA4082C0100001202000031
310
0000006662782F39464131463745442D413632322D343644302D413938332D3331353338454246344243312F636F72652E786D6C8D515B6EC32010BC0AE2AB55850DD871ED0813254D72825EC00192A2C460F1A872FC42ED48ED5F7E00CDCECCCEB26C731F6FE05B39AFADE921293004CA082BB5B9F43086336A21D870E6AC
310
0D7F68109861543DCC30E4ECE26C9C164858139409093556AA051CBC570102714B8F1E7AF1A5C6A11862480C7F2DA6415C878B2A4891CA89C7990F2E050073937C42DE1DB7E4F87ED8A36D4329AA9B3D46DBAEAD504556557BD81DEBDD0761E52CE42C462D17B996298E3E6BE59E35C962CE821E1FF18553435012728A7187
310
0841987E927A8D9B35ADDF70BBC6989599FE4F1427F9A4286A132ABAC49D651EF234CD5CE04CDA78BA3DC2A8FB645D00B9DF8B57E215725C60BCA2A463E54C4CE327C7A65E1C7DB02E7DEFCBF594B864C5CA6CDBD49C957943E9FA5D5FBAF336F90F504B0304140006080800CC70623BAD7543B64E01000033030000300000
310
006662782F39464131463745442D413632322D343644302D413938332D3331353338454246344243312F636E782E786D6CD593CD6EC32010845F0571AD6CE3D48AD20813A9873E410FBD12D82434182C7EAAE6EDBB2424CD25871E7B41D6EC30B3FA84F9E67BB2E40B4234DE8DB46F1925E094D7C6ED479AD3AE5951B2113C
310
789FEE6C943839C1488B4C05DF079FE72A69D8C96C13AAD6B8631503449F83828872B949AC57D26200B826A308D316B4064D6E46FCDA41C05550DC9E483A00797BFD207EFB092A45DE9514C1BBD22178396BD39D891265658C238DEA00936C654E5E433CB65A26D9F6EDB5EBC14EBF49A45CB856E66048291F6939A9A81BB5
310
C8917738143CA680F4AA299D66A042CEB3354A2684DC9D8D178FE0D9B8B41CAAD720F880EE7EF93C0C18769E099ECC04D5A102C8049A8A05632F4DDF376CF1DE0F6BB65C2F8627B65A33C6BB62177CEBBDAD973006829F89F22E814B54F4BC2BE347F8AA8F681390B50FA73F804400B5F542E796F19FF974E7F78DB802FE05
310
E207504B0304140006080800CC70623B16AB87BA640500003C100000340000006662782F39464131463745442D413632322D343644302D413938332D3331353338454246344243312F6F626A656374732E786D6CAD575B6FA33818FD2B887DE6924B3BED8A326A92B68A663B534DD4D13E548A0C38942D60649B369D5FBFC7
310
600890A493BDE42160637FD7F31D7FF63E6FB3D478A55C242CBF3247B66B1A340F5994E4F19559CA8D75611A9F7D8F33263BCB4C232719BD32D5B4E97B316765A1A722BA21652A07B3B7B33F0D11D29C9A46981221AE4C113ED38CD8A4942CA2E2C58E882476BCD9DA23BB5ED8171B73523C0F841684D35CC252CCE79062D4
310
468DFA43D7747CCF51DF7D4FFDEB5593E3AB9CCA9FBEFE241792E4E19EB28198C968BAB8199F5D5A67D3E9C49A9E8F47D6EC76B6B0469F26EEFC7C3EBFBCBEB98462213924694B38DD98FE1D62C393D073EA4FADC5DAF04326852CCF6958F90F0F2B9BB5C48816348F90C7840A68EB78EDF68723159BCEE7891A6B95DDE9D3
310
BCEAEEE8086A6C6F9E5D4B59F0175C10A7A0820BAA5055C7473B5AE3CFDD452D602CD5DF12616444529E90D448938013FE6EFA58AA96F85E4F8C42275708571E98FE6827AF6B2B4AE3D7D83D64E5A64C53054DD3AF90BD06FEA9149565C94FCA0F6B834DC85599E4F2423B24DF0B6AFA979E534DFA9E7A4CC6FA631D486393
310
921829879BF5D781A373557BCB85E97FB90DB62B558F8795179C15944B051F40AB495CF35451D26A4727654E6D8033BD98EF82F21D91FF8AF2DD9982BCF1643BDD4EB516C9492E368C67C88DED563FC36D5EACF66DFF057C3658BDBFA69DF9578B3DA735B64F18C7F20770A9D45CFCF7FCF563D6456A277DBEF78A02637CA2
310
43B90A490AEAB94F72244481D24819A6C0E59B606BFA4B3025981DBB48EAB701D97BF19C577CC77F2D1B6C55A9EF3C732474C0B727303F625995056C3B02963D9EAC146BE78EC5FCEC7FA999EBC5EACBAAE41B12D27B4D2C0BBA49F244E2ECDC81B76B502F113D8F5EE8FB1BE3111CDD4FC2AA9B844CAB1288B68AB90A7CDC
310
1C166AB0D3DC5310625FCC14E779BFD0709F8890A629C9292B1B2DED31A4B0DA928CEE135085754027E3018A397D4D5427D15BD1330B677DC8934285AC3DF45A9EB68FF8F2B8FC0A509AFEECFD0FF2DE25CC6047F7214B195F07EFEB9A094D800F7BFAE8FED187B78EA8A3A400F115961BCAD1215E47C966530AF0EE8128FE
310
58CEBB996A8964FFA529A046635D9353B0336A8F700DDF46271A024E70B0B37C9DE01847591E54DED53D54202AB947E4076556AC49C6CA5C9E1226B7F1A7B1BE15DEED62C41B91E1B3E9AFAAA735036547343A925075041DF0A9979E893B391F8FCFA6967B3EFB644DCF6E5CEBFAE272625DCC6FAF3FB93793C5F90CE1EF57
310
407342756B10D1C489E8953CD1617E5CEECAD6F4EF8914CE5D5D504E5C3F1F9736DA62CFC11E00BCDDB8CC8A9466349744C1F75EBDA4DF09BA8A9E8C7A7E9991989E20E5DBDD6A6003664ED8F7A04A8DBE0DF6EAD9B9AA858342E47399053949D2C146EDB85DE4B176BB0965FBAC19BD19AA918E27FA50C1D22402E144464C
310
59462568E704B6E71915404CB72B8FF4EDE184DDAF753F284990D2C6926782963815403548A70C657FDEF80D2D9CEAA2AE4C1C76F60BFE74219A06527D6582DF6412526107381E55E353090704D085B52408D0933C4ED159D79BDA71BB4BC506F4831350EB6F979CD22D69BF7AC49B91A2C0A9DDA3D5CA36AD20FC478E37E6
310
1844E2352865EBCB6EA275A652E3836BE04EFB400BF1A2556F515F1FBB35B2AB35BD889C744FFA1004B5544B121E57F70215746DD2F5E2C1412B602CBF19455AC6C8E5E9922C4E01E65215385004546899059180EAFCF7A707CE7017CD8CDB0410789AB32C63B91E5CEBBBACB17AC6CD347A022D5075FD106377347AAABA7E
310
7D11590744509B44E205134DC1290F06580320F78E537D3D73540E06CB970B431F185308AD40BBD794D6D77003C5A36E8EAA54BA64597CD8F83BD552A080A365F7FF06504B0304140006080000CC70623B000000000000000000000000350000006662782F39464131463745442D413632322D343644302D413938332D3331
310
353338454246344243312F76657274696365732E62696E504B0304140006080800CC70623BF270F1330600000004000000360000006662782F39464131463745442D413632322D343644302D413938332D3331353338454246344243312F747269616E676C65732E62696E636660600000504B0304140006080000CC70623B
310
000000000000000000000000370000006662782F39464131463745442D413632322D343644302D413938332D3331353338454246344243312F617474726962757465732E62696E504B0304140006080800CC70623B08DA0BD19000000041010000360000006662782F39464131463745442D413632322D343644302D413938
310
332D3331353338454246344243312F6469726563746F72792E786D6C858F410AC3201045AF22B36F53E9A60B35CBEEBAE80D244E44489C6234F4F835464A48035D0DF398FF9F8AF63D0E6CC63039F212F8F9020C7D47C6792B21C5FE7403D62A1188E2E60C98D7234A5830286103A55745067B9D86B8A3CF9C7F90C11DE607
310
FB144396D7B6A82D282E9A152AD114D5EF2CB866EEE831B8EEA07A7BB5A8D7D61A2BAAEB7FD5F70921FF497D00504B0304140006080800CC70623B0D6EF93BFE000000A00100003B0000006662782F39464131463745442D413632322D343644302D413938332D3331353338454246344243312F7265736F75726365732F63
310
6F72652E786D6C8D50596E833010BD0A9ADFCA60B334011947A8694ED00B586642AC041B79A97AFC9A40A5F6AF3F33A3B7689E1E3F7DCD8FEC139DD7D6F4C0720A191A65476DA61E62B892236427C19DB5E1970C322367EC618541F0C9D9B8EC90B226A009093576C41D94DE63804C3DD2D18357379C652E63480A7FCF17A9
310
EE72C29CE5894E3AC17D702940B63D59270887DE46A7D0F36263058F518FBB468FE9A7BE6A7420864373B8D4873369AA8691FA421B3294352543C5CAF65C0F6FEF43CB8BD52C78D0F34F46E550061C419494B6843142CB0F5677F4B52BEB177AEC28E5C52AFF638ACBF84F53D42654E51E77B379102C05791282176B5F693D
310
CB4C7BED567C03504B010214000A0000080000CC70623B3DEE336E79000000790000001B00000000000000000000000000000000006175746F6465736B2D64657369676E2D7061636B6167652E786D6C504B01021400140006080800CC70623BD486FD9CA0000000F40000001300000000000000000000000000B20000005B
310
436F6E74656E745F54797065735D2E786D6C504B01021400140006080800CC70623B1EC5D7A3EB0000007C010000080000000000000000000000000083010000636F72652E786D6C504B01021400140006080800CC70623B55019EA25F0000007C000000070000000000000000000000000094020000636E782E786D6C504B
310
01021400140006080800CC70623B8C9102E971010000D40300000C00000000000000000000000000180300006662782F636F72652E786D6C504B01021400140006080800CC70623BFFEA85907E0000009D0000000B00000000000000000000000000B30400006662782F636E782E786D6C504B01021400140006080800CC70
310
623B4FEEA4082C0100001202000031000000000000000000000000005A0500006662782F39464131463745442D413632322D343644302D413938332D3331353338454246344243312F636F72652E786D6C504B01021400140006080800CC70623BAD7543B64E010000330300003000000000000000000000000000D5060000
310
6662782F39464131463745442D413632322D343644302D413938332D3331353338454246344243312F636E782E786D6C504B01021400140006080800CC70623B16AB87BA640500003C1000003400000000000000000000000000710800006662782F39464131463745442D413632322D343644302D413938332D3331353338
310
454246344243312F6F626A656374732E786D6C504B01021400140006080000CC70623B0000000000000000000000003500000000000000000000000000270E00006662782F39464131463745442D413632322D343644302D413938332D3331353338454246344243312F76657274696365732E62696E504B01021400140006
310
080800CC70623BF270F133060000000400000036000000000000000000000000007A0E00006662782F39464131463745442D413632322D343644302D413938332D3331353338454246344243312F747269616E676C65732E62696E504B01021400140006080000CC70623B0000000000000000000000003700000000000000
310
000000000000D40E00006662782F39464131463745442D413632322D343644302D413938332D3331353338454246344243312F617474726962757465732E62696E504B01021400140006080800CC70623B08DA0BD190000000410100003600000000000000000000000000290F00006662782F39464131463745442D413632
310
322D343644302D413938332D3331353338454246344243312F6469726563746F72792E786D6C504B01021400140006080800CC70623B0D6EF93BFE000000A00100003B000000000000000000000000000D1000006662782F39464131463745442D413632322D343644302D413938332D3331353338454246344243312F7265
310
736F75726365732F636F72652E786D6C504B0506000000000E000E0080040000641100000000
  0
XRECORD
  5
BC8B
102
{ACAD_REACTORS
330
173
102
}
330
173
100
AcDbXrecord
280
     1
102
MATERIAL
148
0.0
149
0.0
149
0.0
 93
        0
 94
       63
282
     0
 72
     1
 77
     1
171
     1
175
     1
179
     1
273
     0
  0
XRECORD
  5
175
102
{ACAD_REACTORS
330
173
102
}
330
173
100
AcDbXrecord
280
     1
270
     1
271
     1
  0
XRECORD
  5
174
102
{ACAD_REACTORS
330
173
102
}
330
173
100
AcDbXrecord
280
     1
270
     1
271
     1
  0
XRECORD
  5
1FB
102
{ACAD_REACTORS
330
173
102
}
330
173
100
AcDbXrecord
280
     1
 70
     0
 90
1673772943
  1
ECE7A1D2-D628-4531-984C-D00F80459256
310
504B03040A0000080000CC70623B3DEE336E79000000790000001B0000006175746F6465736B2D64657369676E2D7061636B6167652E786D6C3C3F786D6C2076657273696F6E3D22312E302220656E636F64696E673D227574662D3822203F3E3C666F726D6174733E3C666F726D61743E687474703A2F2F736368656D612E
310
6175746F6465736B2E636F6D2F64657369676E2D7061636B6167652F323030393C2F666F726D61743E3C2F666F726D6174733E504B0304140006080800CC70623BD486FD9CA0000000F4000000130000005B436F6E74656E745F54797065735D2E786D6C7D8EC10E82300C865F65E91D8A1E8C310C0EEA1BF002731658846E
310
D98AC1B77784ABF1D8FE5FBFBF75BBCE937A534CCEB38643598122B6FEE978D0B0485F9C41B54DDD7D022595594E1A469170414C76A4D9A4D207E29CF43ECE46F218070CC6BECC4078ACAA135ACF422C856C0E68EA1BF5669944DDD7BCDE7B1F8E415D77AECB980613C2E4AC91FC167A2B244592486606FC29C8FD7F045B9A
310
EF7053A7E60B504B0304140006080800CC70623BD9DDAED0EC0000007C01000008000000636F72652E786D6C8D90416EC3201045AF82665B61836D9CD8C2444DD39CA01740405C94182C03558F5F9C3852BBEB6A467FFE9B197D7EF89E6EE8CB2CC17A37002D0820E394D7D68D03A478C17B4007C117EFE32F1B20272733C0
310
2A83E0E3E2D3BC49CABB685CCCAAF3DA6CA20CC14440EA969B0182FA34932C648AD911AEC52CD5558EA6A0CF2EC329598D1E47ACCEFBECC59A050463A7EA5833865FEBDD0E37353BE3EE8DBDE3F6786A48D375FBF6CC78B9C282473B3DEFABC5C86834888A900E538A49F5419B9EB47DD5BC907D4F082F57FB1F28CDFA9F50
310
B22ED6D5F6EE030B20687EE43E10BC5CB3C8E51E54AE6B6EE207504B0304140006080800CC70623B55019EA25F0000007C00000007000000636E782E786D6C4DCB3B0E80201045D1AD90E915ED2CF8AC45050C11660C8261F98AB1B07AC9C97D42D718D865D3E909258CFD00CCE24AC6E326A164D74DC0B4128928FF326038
310
472BA13128B1252AC747C6BAB984FC68F0B87FE8960A5C09FE86CFB69FBA01504B0304140006080800CC70623BA24EB22D72010000D40300000C0000006662782F636F72652E786D6CC5535B6E833010BC8AE5DF0A6C5E49888CA3A6694ED00B38E05014B091B1518EDFE511A5A9D228FD2A1F60CDEC7A67C6986DCE4D8D7A
310
69BA4AAB0C073EC548AA5C17952A33ECECD15B61B4E1CC686DBF9561A44423333CC098B3D268D7CE50AE9595CA02AA74216750749DB418E5352C32DCE59FB211BE70162ABA93DF8AFC244AE9073ED050C759670D0840D390E18DF9F1706664C23973AE2A66B62A605A75ACA4C13C4976E1364A12EF355A2EBD384AF65EFA96
310
BC7B8BED2EA6719AAE16FB8491A199335B351775B991C2CA02F390D2D40B028F861F41BCA68B7518BFD0D59A524686F29B26D7164F36B94AD9289CE54E6D1DE6010819891F6E21228B3AD1831EC219194284CF98F06DD01008846CC5A1BEF83801D4CBDC6A1303536877A57A513B0953A94FC707FDBE6064EA84A9E3E6E0FA
310
EE8CF0E9198F7784A316AA0413C2C2F2E0ECA0934D1AE6D05A69BCDE9E91D2A611F573361E38FC1375157F5752AE6B6DFE4B11990F88CCBF0719EE23FF02504B0304140006080800CC70623B408A7D3B7C0000009D0000000B0000006662782F636E782E786D6C4DCCD10A83201886E15B91FFDC552A92A0064DBC8F581632
310
D3703A76F9ABD1C18E3E78F878E5F0D9027ABBFCF2292AE86E2D20171F69F6715550CB827B40839639A5F2770314A7CD293819B45C73AAFB45B35BA61ACAA1C1C7E7855C58C15BC331339661262CC762340413D68D77DA5B42298546CBE6573AF60CEB2F504B0304140006080800CC70623B449FB9BD290100001202000031
310
0000006662782F36394639363044362D344446342D343946362D394244322D3234314243333846323333332F636F72652E786D6C8D515B6EC32010BC0AE22B55850D98B871848994463E412FE002495162B07854397EA176A4F62F3F2C9A9D991D587EB84F37F0AD7D30CEF6905418026DA553C65E7A98E219ED203808EE9D
310
8B7F6810D871D23D2C3014FCE25D9A57483A1BB58D19B54EE9151C43D0110279CB971E06F9A5A7B11A53CC8C70ADE6515EC78BAE4895DB992778883E0700CB907242D17643D7E2538BD869608875438BBAE38922CAC8F1BDD90DB4691A5E2F42C153326A951B95E398B3D1FE599322163C9AE9115F7A3D46ADA0A018778810
310
84E907617BDCEE297BC5BB3DC6BC2EF47FA234AB2745C9D8D8D035EE220B50105E2F0DC1954B9FB747187D9F9D8FA0CCDB042D5FA0C015C65B42DF78BD10F3F3B363CB56C7109DCFDFBBB97E662ED92EB62D13BC2E1BCAE5777DB9966D8A1F504B0304140006080800CC70623BAD7543B64E01000033030000300000006662
310
782F36394639363044362D344446342D343946362D394244322D3234314243333846323333332F636E782E786D6CD593CD6EC32010845F0571AD6CE3D48AD20813A9873E410FBD12D82434182C7EAAE6EDBB2424CD25871E7B41D6EC30B3FA84F9E67BB2E40B4234DE8DB46F1925E094D7C6ED479AD3AE5951B2113C789FEE
310
6C943839C1488B4C05DF079FE72A69D8C96C13AAD6B8631503449F83828872B949AC57D26200B826A308D316B4064D6E46FCDA41C05550DC9E483A00797BFD207EFB092A45DE9514C1BBD22178396BD39D891265658C238DEA00936C654E5E433CB65A26D9F6EDB5EBC14EBF49A45CB856E66048291F6939A9A81BB5C89177
310
38143CA680F4AA299D66A042CEB3354A2684DC9D8D178FE0D9B8B41CAAD720F880EE7EF93C0C18769E099ECC04D5A102C8049A8A05632F4DDF376CF1DE0F6BB65C2F8627B65A33C6BB62177CEBBDAD973006829F89F22E814B54F4BC2BE347F8AA8F681390B50FA73F804400B5F542E796F19FF974E7F78DB802FE05E20750
310
4B0304140006080800CC70623B8D05915C650500003B100000340000006662782F36394639363044362D344446342D343946362D394244322D3234314243333846323333332F6F626A656374732E786D6CAD575B6FA33814FE2B887D06429276DA1565D4266D158D3A339A6846FB502932E050B66023DB74D2FDF5FB190C01
310
9276B2973C046C8ECFF53B17071F77456EBD502133CEAE6CDF9DD81665314F32965ED995DA3A17B6F5310C04E7AA47665B8C14F4CAD6DB7618A48257A5D94AE89654B91AEDDEDDFC61C998326A5B714EA4BCB265FC440BE2924AF184CA6737218AB8E976E7FA6E4338649B0A523E8D98964450A6A029F619B8588D52FE7039
310
B1BD30F0F4F730D0FF866AF6369557DB33949F31A9088B0F848DD8CCFCF9F2767A76E99CCDE733677E3EF59D9BBB9BA5E37F984D16E78BC5E5F5ED25044B25C0C96822E8D60EEFE11B91C581D77CEA34368A1F5329E68CD1B8B61F16D63A1B8E092D294B10C78C4A48EB593D192E7DED9BDEE7995E1B91FDEDD3ACEA9FE831
310
6A756F9F7D4D79F4274C90A7A04248AA51D5F8C718DAE06FB2F75AC4796EBE65D22A88A22223B995679120E2D50E41AA49C260C046A35368846B0BECD0DFF3EBEB8AD4F835768F69B9ADF25C43D30E6B646F807FAA64AD59F61715C7A54127C4AACA98BA3006A9D792DAE165E0D59B61A01FB3A9F9D838D2DAE62445C86166
310
F37564E842E7DE6A69879FEEA2DD5AE7E371E1A5E025154AC307D06A03D73EB5978C58FFA4C8E9033066E0F3BD53BEC1F39F91BE7B55103791EDE6BBB991A2046172CB4581D8B893FA674DDA17A77B3B7C413D1B511FD2743BFF8A38F03A658705E3ADF8015C3A3417FF3D7E439FF591DA0B5F18BC20C1B8981957AE6392A3
310
F43C640C01D1A0B4728E2DD4F26DB4B3C3152A252A3B4E913CEC1C72F012782FF88EFF8637AA552DBEF76408E8A8DE9E50F9E1CB3A2DA0DB1B6039A893B56063DC5B3E3FFB5F72E67AB9FEB4AEC496C4F4C1149625DD662C53E89D7BF0F6151A046260D1337DFDC94502430F83B0EE07A130A224BCAD7DAE1D9FB6CD422FF6
310
920702629C4BB9AE79C12F243C6432A6794E18E5552BA56B431AAB5D91317302B2B071E86C3A42B1A02F999E24061403B5D0EB639195DA655DD3EBEAB4FB862DDF579F014AD0E73C22F99E28DA57FB98E75C6CA2D74D53086D600F4786E0FE3144B771A8A7B900F03594DB8A633CBC49B2EDB69228BB479CF863B5E807AAAB
310
23872F6DFEB4129B949CA33823F58830E86D65621E10047D9DB34D862E8EAC3C2ABC2F7B2C40D67CDFE01F5545B92105AF983AC54D93D69E56FB8E797F88913F898A9FEC705D3F9D1B54EC8426FB500D40A03BD0119B06E1B95DDC7EB8F6975367793EBD70E66733DFB9BC982F9CE564727731999F5D4ECFCE3B8D6A4DC2A0
310
6D50FD148437D110834A64C6CDDF57FBACB5C307A2A477DFE4939736CFEF2B175371E0E10CF0DD1D5C15654E0BCA14D1E87DD02FF93782A162C0A3D95F1524A52770F972BF1EE9809D13CE7DD599467F8ECE9ADD85CE85A34CD45355448C64F9E8A031DC2D596ACC6E5DD93D9B82DE2EF5CAF81363A8E47996A0DE24564A79
310
4115AACE09C55E14540231FDA13C319787134EBF34E3A022514E5B4D9E0826E25C02D5805B15ABE1BEF51B26383D445DD9E875EE33FE4C22DA16427D65A3BCA92CA6D28DD01DF5DC53330704308475351050232CCD31583787BA75774AFB06E5070DD0C8EF484E19968C5D83BA5B90B244D31E54D55A372320FE4786B7EA58
310
44E135AA5467CB7EA333A61683CC6A8C3257034C10CF46F40EF9F5BE59BE5BD30C3C72D235E95D10345C1D45445A5F0BB47E46A5EBE5570F9380B5FA629579952296A773720405982B9DE04011506178964401AA8BDF1FBF0A8EAB6861DD6580C0E38217056766716DAEB2D6FA0917D3E4116581EADB879C4E7CFFB11EFACD
310
3D641311495D92C8676CB409A72D18610D803CE8A626049E8EC1887CB5B44CC39883690DDA8399B4B9855B481E7D71D4A9D22F96E5BB73BF5793020C02137BF837504B0304140006080000CC70623B000000000000000000000000350000006662782F36394639363044362D344446342D343946362D394244322D32343142
310
43333846323333332F76657274696365732E62696E504B0304140006080800CC70623BF270F1330600000004000000360000006662782F36394639363044362D344446342D343946362D394244322D3234314243333846323333332F747269616E676C65732E62696E636660600000504B0304140006080000CC70623B0000
310
00000000000000000000370000006662782F36394639363044362D344446342D343946362D394244322D3234314243333846323333332F617474726962757465732E62696E504B0304140006080800CC70623B08DA0BD19000000041010000360000006662782F36394639363044362D344446342D343946362D394244322D
310
3234314243333846323333332F6469726563746F72792E786D6C858F410AC3201045AF22B36F53E9A60B35CBEEBAE80D244E44489C6234F4F835464A48035D0DF398FF9F8AF63D0E6CC63039F212F8F9020C7D47C6792B21C5FE7403D62A1188E2E60C98D7234A5830286103A55745067B9D86B8A3CF9C7F90C11DE607FB14
310
4396D7B6A82D282E9A152AD114D5EF2CB866EEE831B8EEA07A7BB5A8D7D61A2BAAEB7FD5F70921FF497D00504B0304140006080800CC70623BCA768048FE000000A00100003B0000006662782F36394639363044362D344446342D343946362D394244322D3234314243333846323333332F7265736F75726365732F636F72
310
652E786D6C8D50596E833010BD0A9ADFCA60D600328E9AA639412F609909B1126CE4A5EAF16B0295DABFFECC8CDEA2797AECF8353F924FB44E193D409E5248504B332A3D0D10FC95B4901C39B3C6F85F3248B49871801506CE266BC2B243D2688FDA47549B11775038871E12F988C7004EDE7016A9083E2ADC3D5D84BC8B09
310
D33C8D74D471E6BC8D0192EDC93A815B742658898E651BCB59086ADC356A8C3FD555A1055ED7E7E254D615792D0F075295F585746FF53B694EE78A565DD736979A65AB9933AFE69F8CD2A2F038022F28ED489E135A7CE4554F9BBEA85E68DB53CAB255FEC71496F19FA6A0B42F8B3DEE6673C0F318E4497096AD7DC5F52C33
310
EEB55BFE0D504B010214000A0000080000CC70623B3DEE336E79000000790000001B00000000000000000000000000000000006175746F6465736B2D64657369676E2D7061636B6167652E786D6C504B01021400140006080800CC70623BD486FD9CA0000000F40000001300000000000000000000000000B20000005B436F
310
6E74656E745F54797065735D2E786D6C504B01021400140006080800CC70623BD9DDAED0EC0000007C010000080000000000000000000000000083010000636F72652E786D6C504B01021400140006080800CC70623B55019EA25F0000007C000000070000000000000000000000000095020000636E782E786D6C504B0102
310
1400140006080800CC70623BA24EB22D72010000D40300000C00000000000000000000000000190300006662782F636F72652E786D6C504B01021400140006080800CC70623B408A7D3B7C0000009D0000000B00000000000000000000000000B50400006662782F636E782E786D6C504B01021400140006080800CC70623B
310
449FB9BD290100001202000031000000000000000000000000005A0500006662782F36394639363044362D344446342D343946362D394244322D3234314243333846323333332F636F72652E786D6C504B01021400140006080800CC70623BAD7543B64E010000330300003000000000000000000000000000D20600006662
310
782F36394639363044362D344446342D343946362D394244322D3234314243333846323333332F636E782E786D6C504B01021400140006080800CC70623B8D05915C650500003B10000034000000000000000000000000006E0800006662782F36394639363044362D344446342D343946362D394244322D32343142433338
310
46323333332F6F626A656374732E786D6C504B01021400140006080000CC70623B0000000000000000000000003500000000000000000000000000250E00006662782F36394639363044362D344446342D343946362D394244322D3234314243333846323333332F76657274696365732E62696E504B010214001400060808
310
00CC70623BF270F13306000000040000003600000000000000000000000000780E00006662782F36394639363044362D344446342D343946362D394244322D3234314243333846323333332F747269616E676C65732E62696E504B01021400140006080000CC70623B00000000000000000000000037000000000000000000
310
00000000D20E00006662782F36394639363044362D344446342D343946362D394244322D3234314243333846323333332F617474726962757465732E62696E504B01021400140006080800CC70623B08DA0BD190000000410100003600000000000000000000000000270F00006662782F36394639363044362D344446342D
310
343946362D394244322D3234314243333846323333332F6469726563746F72792E786D6C504B01021400140006080800CC70623BCA768048FE000000A00100003B000000000000000000000000000B1000006662782F36394639363044362D344446342D343946362D394244322D3234314243333846323333332F7265736F
310
75726365732F636F72652E786D6C504B0506000000000E000E0080040000621100000000
  0
XRECORD
  5
176
102
{ACAD_REACTORS
330
173
102
}
330
173
100
AcDbXrecord
280
     1
270
     1
271
     1
  0
XRECORD
  5
177
102
{ACAD_REACTORS
330
173
102
}
330
173
100
AcDbXrecord
280
     1
270
     1
271
     1
  0
XRECORD
  5
BCAD
102
{ACAD_REACTORS
330
BCAC
102
}
330
BCAC
100
AcDbXrecord
280
     1
102
ACAD_ROUNDTRIP_2012_MLEADER_STYLE
298
     1
  0
XRECORD
  5
BCBF
102
{ACAD_REACTORS
330
BCBE
102
}
330
BCBE
100
AcDbXrecord
280
     1
102
DISPLAYNAME
  1
Metric50
102
FLAGS
 90
        0
  0
CELLSTYLEMAP
  5
BC7F
102
{ACAD_REACTORS
330
162
102
}
330
162
100
AcDbCellStyleMap
 90
        3
300
CELLSTYLE
  1
TABLEFORMAT_BEGIN
 90
        5
170
     1
 91
        0
 92
    32768
 62
   257
 93
        1
300
CONTENTFORMAT
  1
CONTENTFORMAT_BEGIN
 90
        0
 91
        0
 92
      512
 93
        0
300

 40
0.0
140
1.0
 94
        5
 62
     0
340
11
144
6.0
309
CONTENTFORMAT_END
171
     1
301
MARGIN
  1
CELLMARGIN_BEGIN
 40
1.5
 40
1.5
 40
1.5
 40
1.5
 40
4.5
 40
4.5
309
CELLMARGIN_END
 94
        6
 95
        1
302
GRIDFORMAT
  1
GRIDFORMAT_BEGIN
 90
        0
 91
        1
 62
     0
 92
       -2
340
14
 93
        0
 40
1.125
309
GRIDFORMAT_END
 95
        2
302
GRIDFORMAT
  1
GRIDFORMAT_BEGIN
 90
        0
 91
        1
 62
     0
 92
       -2
340
14
 93
        0
 40
1.125
309
GRIDFORMAT_END
 95
        4
302
GRIDFORMAT
  1
GRIDFORMAT_BEGIN
 90
        0
 91
        1
 62
     0
 92
       -2
340
14
 93
        0
 40
1.125
309
GRIDFORMAT_END
 95
        8
302
GRIDFORMAT
  1
GRIDFORMAT_BEGIN
 90
        0
 91
        1
 62
     0
 92
       -2
340
14
 93
        0
 40
1.125
309
GRIDFORMAT_END
 95
       16
302
GRIDFORMAT
  1
GRIDFORMAT_BEGIN
 90
        0
 91
        1
 62
     0
 92
       -2
340
14
 93
        0
 40
1.125
309
GRIDFORMAT_END
 95
       32
302
GRIDFORMAT
  1
GRIDFORMAT_BEGIN
 90
        0
 91
        1
 62
     0
 92
       -2
340
14
 93
        0
 40
1.125
309
GRIDFORMAT_END
309
TABLEFORMAT_END
  1
CELLSTYLE_BEGIN
 90
        1
 91
        1
300
_TITLE
309
CELLSTYLE_END
300
CELLSTYLE
  1
TABLEFORMAT_BEGIN
 90
        5
170
     1
 91
        0
 92
        0
 62
   257
 93
        1
300
CONTENTFORMAT
  1
CONTENTFORMAT_BEGIN
 90
        0
 91
        0
 92
      512
 93
        0
300

 40
0.0
140
1.0
 94
        5
 62
     0
340
11
144
4.5
309
CONTENTFORMAT_END
171
     1
301
MARGIN
  1
CELLMARGIN_BEGIN
 40
1.5
 40
1.5
 40
1.5
 40
1.5
 40
4.5
 40
4.5
309
CELLMARGIN_END
 94
        6
 95
        1
302
GRIDFORMAT
  1
GRIDFORMAT_BEGIN
 90
        0
 91
        1
 62
     0
 92
       -2
340
14
 93
        0
 40
1.125
309
GRIDFORMAT_END
 95
        2
302
GRIDFORMAT
  1
GRIDFORMAT_BEGIN
 90
        0
 91
        1
 62
     0
 92
       -2
340
14
 93
        0
 40
1.125
309
GRIDFORMAT_END
 95
        4
302
GRIDFORMAT
  1
GRIDFORMAT_BEGIN
 90
        0
 91
        1
 62
     0
 92
       -2
340
14
 93
        0
 40
1.125
309
GRIDFORMAT_END
 95
        8
302
GRIDFORMAT
  1
GRIDFORMAT_BEGIN
 90
        0
 91
        1
 62
     0
 92
       -2
340
14
 93
        0
 40
1.125
309
GRIDFORMAT_END
 95
       16
302
GRIDFORMAT
  1
GRIDFORMAT_BEGIN
 90
        0
 91
        1
 62
     0
 92
       -2
340
14
 93
        0
 40
1.125
309
GRIDFORMAT_END
 95
       32
302
GRIDFORMAT
  1
GRIDFORMAT_BEGIN
 90
        0
 91
        1
 62
     0
 92
       -2
340
14
 93
        0
 40
1.125
309
GRIDFORMAT_END
309
TABLEFORMAT_END
  1
CELLSTYLE_BEGIN
 90
        2
 91
        1
300
_HEADER
309
CELLSTYLE_END
300
CELLSTYLE
  1
TABLEFORMAT_BEGIN
 90
        5
170
     1
 91
        0
 92
        0
 62
   257
 93
        1
300
CONTENTFORMAT
  1
CONTENTFORMAT_BEGIN
 90
        0
 91
        0
 92
      512
 93
        0
300

 40
0.0
140
1.0
 94
        2
 62
     0
340
11
144
4.5
309
CONTENTFORMAT_END
171
     1
301
MARGIN
  1
CELLMARGIN_BEGIN
 40
1.5
 40
1.5
 40
1.5
 40
1.5
 40
4.5
 40
4.5
309
CELLMARGIN_END
 94
        6
 95
        1
302
GRIDFORMAT
  1
GRIDFORMAT_BEGIN
 90
        0
 91
        1
 62
     0
 92
       -2
340
14
 93
        0
 40
1.125
309
GRIDFORMAT_END
 95
        2
302
GRIDFORMAT
  1
GRIDFORMAT_BEGIN
 90
        0
 91
        1
 62
     0
 92
       -2
340
14
 93
        0
 40
1.125
309
GRIDFORMAT_END
 95
        4
302
GRIDFORMAT
  1
GRIDFORMAT_BEGIN
 90
        0
 91
        1
 62
     0
 92
       -2
340
14
 93
        0
 40
1.125
309
GRIDFORMAT_END
 95
        8
302
GRIDFORMAT
  1
GRIDFORMAT_BEGIN
 90
        0
 91
        1
 62
     0
 92
       -2
340
14
 93
        0
 40
1.125
309
GRIDFORMAT_END
 95
       16
302
GRIDFORMAT
  1
GRIDFORMAT_BEGIN
 90
        0
 91
        1
 62
     0
 92
       -2
340
14
 93
        0
 40
1.125
309
GRIDFORMAT_END
 95
       32
302
GRIDFORMAT
  1
GRIDFORMAT_BEGIN
 90
        0
 91
        1
 62
     0
 92
       -2
340
14
 93
        0
 40
1.125
309
GRIDFORMAT_END
309
TABLEFORMAT_END
  1
CELLSTYLE_BEGIN
 90
        3
 91
        2
300
_DATA
309
CELLSTYLE_END
  0
XRECORD
  5
BC84
102
{ACAD_REACTORS
330
162
102
}
330
162
100
AcDbXrecord
280
     1
102
ACAD_ROUNDTRIP_PRE2007_TABLESTYLE
 90
      512
 91
        0
  1

 92
      512
 93
        0
  2

 94
      512
 95
        0
  3

  0
XRECORD
  5
BC97
102
{ACAD_REACTORS
330
BC96
102
}
330
BC96
100
AcDbXrecord
280
     1
102
RTVSPost2010Prop28
280
     1
102
RTVSPost2010PropOp28
 70
     1
102
RTVSPost2010Prop29
280
     1
102
RTVSPost2010PropOp29
 70
     1
102
RTVSPost2010Prop30
280
     0
102
RTVSPost2010PropOp30
 70
     1
102
RTVSPost2010Prop31
280
     0
102
RTVSPost2010PropOp31
 70
     1
102
RTVSPost2010Prop32
280
     0
102
RTVSPost2010PropOp32
 70
     1
102
RTVSPost2010Prop33
280
     0
102
RTVSPost2010PropOp33
 70
     1
102
RTVSPost2010Prop34
280
     0
102
RTVSPost2010PropOp34
 70
     1
102
RTVSPost2010Prop35
280
     0
102
RTVSPost2010PropOp35
 70
     1
102
RTVSPost2010Prop36
280
     0
102
RTVSPost2010PropOp36
 70
     1
102
RTVSPost2010Prop37
 90
       50
102
RTVSPost2010PropOp37
 70
     1
102
RTVSPost2010Prop38
140
0.0
102
RTVSPost2010PropOp38
 70
     1
102
RTVSPost2010Prop39
140
1.0
102
RTVSPost2010PropOp39
 70
     1
102
RTVSPost2010Prop40
 90
        0
102
RTVSPost2010PropOp40
 70
     1
102
RTVSPost2010Prop41ColorIndex
 90
       18
102
RTVSPost2010Prop41ColorRGB
 90
        0
102
RTVSPost2010PropOp41
 70
     1
102
RTVSPost2010Prop42
 90
       50
102
RTVSPost2010PropOp42
 70
     1
102
RTVSPost2010Prop43
 90
        3
102
RTVSPost2010PropOp43
 70
     1
102
RTVSPost2010Prop44ColorIndex
 90
        5
102
RTVSPost2010Prop44ColorRGB
 90
      255
102
RTVSPost2010PropOp44
 70
     1
102
RTVSPost2010Prop45
280
     0
102
RTVSPost2010PropOp45
 70
     1
102
RTVSPost2010Prop46
 90
       50
102
RTVSPost2010PropOp46
 70
     1
102
RTVSPost2010Prop47
 90
       50
102
RTVSPost2010PropOp47
 70
     1
102
RTVSPost2010Prop48
 90
       50
102
RTVSPost2010PropOp48
 70
     1
102
RTVSPost2010Prop49
280
     0
102
RTVSPost2010PropOp49
 70
     1
102
RTVSPost2010Prop50
 90
       50
102
RTVSPost2010PropOp50
 70
     1
102
RTVSPost2010Prop51ColorIndex
 90
      256
102
RTVSPost2010Prop51ColorRGB
 90
-16777216
102
RTVSPost2010PropOp51
 70
     0
102
RTVSPost2010Prop52
140
1.0
102
RTVSPost2010PropOp52
 70
     0
102
RTVSPost2010Prop53
 90
        2
102
RTVSPost2010PropOp53
 70
     1
102
RTVSPost2010Prop54
  1
strokes_ogs.tif
102
RTVSPost2010PropOp54
 70
     1
102
RTVSPost2010Prop55
280
     0
102
RTVSPost2010PropOp55
 70
     1
102
RTVSPost2010Prop56
140
1.0
102
RTVSPost2010PropOp56
 70
     1
102
RTVSPost2010Prop57
140
1.0
102
RTVSPost2010PropOp57
 70
     1
102
RTVSPropertyOp0
 70
     1
102
RTVSPropertyOp1
 70
     1
102
RTVSPropertyOp2
 70
     1
102
RTVSPropertyOp3
 70
     1
102
RTVSPropertyOp4
 70
     1
102
RTVSPropertyOp5
 70
     1
102
RTVSPropertyOp6
 70
     1
102
RTVSPropertyOp7
 70
     1
102
RTVSPropertyOp8
 70
     1
102
RTVSPropertyOp9
 70
     1
102
RTVSPropertyOp10
 70
     1
102
RTVSPropertyOp11
 70
     1
102
RTVSPropertyOp12
 70
     1
102
RTVSPropertyOp13
 70
     1
102
RTVSPropertyOp14
 70
     1
102
RTVSPropertyOp15
 70
     1
102
RTVSPropertyOp16
 70
     1
102
RTVSPropertyOp17
 70
     1
102
RTVSPropertyOp18
 70
     1
102
RTVSPropertyOp19
 70
     1
102
RTVSPropertyOp20
 70
     1
102
RTVSPropertyOp21
 70
     1
102
RTVSPropertyOp22
 70
     1
102
RTVSPropertyOp23
 70
     1
102
RTVSPropertyOp24
 70
     1
102
RTVSPropertyOp25
 70
     1
102
RTVSPropertyOp26
 70
     1
102
RTVSPropertyOp27
 70
     1
102
RTVSPropertyOp28
 70
     1
102
RTVSPropertyOp29
 70
     1
102
RTVSPropertyOp30
 70
     1
102
RTVSPropertyOp31
 70
     1
102
RTVSPropertyOp32
 70
     1
102
RTVSPropertyOp33
 70
     1
102
RTVSPropertyOp34
 70
     1
102
RTVSPropertyOp35
 70
     1
102
RTVSPropertyOp36
 70
     1
102
RTVSPropertyOp37
 70
     1
102
RTVSPropertyOp38
 70
     1
102
RTVSPropertyOp39
 70
     1
102
RTVSPropertyOp40
 70
     1
102
RTVSPropertyOp41
 70
     1
102
RTVSPropertyOp42
 70
     1
102
RTVSPropertyOp43
 70
     1
102
RTVSPropertyOp44
 70
     1
102
RTVSPropertyOp45
 70
     1
102
RTVSPropertyOp46
 70
     1
102
RTVSPropertyOp47
 70
     1
102
RTVSPropertyOp48
 70
     1
102
RTVSPropertyOp49
 70
     1
102
RTVSPropertyOp50
 70
     1
102
RTVSPropertyOp51
 70
     0
102
RTVSPropertyOp52
 70
     0
102
RTVSPropertyOp53
 70
     1
102
RTVSPropertyOp54
 70
     1
102
RTVSPropertyOp55
 70
     1
102
RTVSPropertyOp56
 70
     1
102
RTVSPropertyOp57
 70
     1
102
RTVSPropertyOp58
 70
     1
102
RTVSPropertyOp59
 70
     1
102
RTVSPropertyOp60
 70
     1
102
RTVSPropertyOp61
 70
     1
102
RTVSPropertyOp62
 70
     1
  0
XRECORD
  5
BC95
102
{ACAD_REACTORS
330
BC94
102
}
330
BC94
100
AcDbXrecord
280
     1
102
RTVSPost2010Prop28
280
     0
102
RTVSPost2010PropOp28
 70
     1
102
RTVSPost2010Prop29
280
     1
102
RTVSPost2010PropOp29
 70
     1
102
RTVSPost2010Prop30
280
     1
102
RTVSPost2010PropOp30
 70
     1
102
RTVSPost2010Prop31
280
     0
102
RTVSPost2010PropOp31
 70
     1
102
RTVSPost2010Prop32
280
     0
102
RTVSPost2010PropOp32
 70
     1
102
RTVSPost2010Prop33
280
     0
102
RTVSPost2010PropOp33
 70
     1
102
RTVSPost2010Prop34
280
     0
102
RTVSPost2010PropOp34
 70
     1
102
RTVSPost2010Prop35
280
     0
102
RTVSPost2010PropOp35
 70
     1
102
RTVSPost2010Prop36
280
     0
102
RTVSPost2010PropOp36
 70
     1
102
RTVSPost2010Prop37
 90
       50
102
RTVSPost2010PropOp37
 70
     1
102
RTVSPost2010Prop38
140
0.0
102
RTVSPost2010PropOp38
 70
     1
102
RTVSPost2010Prop39
140
1.0
102
RTVSPost2010PropOp39
 70
     1
102
RTVSPost2010Prop40
 90
        0
102
RTVSPost2010PropOp40
 70
     1
102
RTVSPost2010Prop41ColorIndex
 90
       18
102
RTVSPost2010Prop41ColorRGB
 90
        0
102
RTVSPost2010PropOp41
 70
     1
102
RTVSPost2010Prop42
 90
       50
102
RTVSPost2010PropOp42
 70
     1
102
RTVSPost2010Prop43
 90
        3
102
RTVSPost2010PropOp43
 70
     1
102
RTVSPost2010Prop44ColorIndex
 90
        5
102
RTVSPost2010Prop44ColorRGB
 90
      255
102
RTVSPost2010PropOp44
 70
     1
102
RTVSPost2010Prop45
280
     0
102
RTVSPost2010PropOp45
 70
     1
102
RTVSPost2010Prop46
 90
       50
102
RTVSPost2010PropOp46
 70
     1
102
RTVSPost2010Prop47
 90
       50
102
RTVSPost2010PropOp47
 70
     1
102
RTVSPost2010Prop48
 90
       50
102
RTVSPost2010PropOp48
 70
     1
102
RTVSPost2010Prop49
280
     0
102
RTVSPost2010PropOp49
 70
     1
102
RTVSPost2010Prop50
 90
       50
102
RTVSPost2010PropOp50
 70
     1
102
RTVSPost2010Prop51ColorIndex
 90
      256
102
RTVSPost2010Prop51ColorRGB
 90
-16777216
102
RTVSPost2010PropOp51
 70
     0
102
RTVSPost2010Prop52
140
1.0
102
RTVSPost2010PropOp52
 70
     0
102
RTVSPost2010Prop53
 90
        2
102
RTVSPost2010PropOp53
 70
     1
102
RTVSPost2010Prop54
  1
strokes_ogs.tif
102
RTVSPost2010PropOp54
 70
     1
102
RTVSPost2010Prop55
280
     0
102
RTVSPost2010PropOp55
 70
     1
102
RTVSPost2010Prop56
140
1.0
102
RTVSPost2010PropOp56
 70
     1
102
RTVSPost2010Prop57
140
1.0
102
RTVSPost2010PropOp57
 70
     1
102
RTVSPropertyOp0
 70
     1
102
RTVSPropertyOp1
 70
     1
102
RTVSPropertyOp2
 70
     1
102
RTVSPropertyOp3
 70
     1
102
RTVSPropertyOp4
 70
     1
102
RTVSPropertyOp5
 70
     1
102
RTVSPropertyOp6
 70
     1
102
RTVSPropertyOp7
 70
     1
102
RTVSPropertyOp8
 70
     1
102
RTVSPropertyOp9
 70
     1
102
RTVSPropertyOp10
 70
     1
102
RTVSPropertyOp11
 70
     1
102
RTVSPropertyOp12
 70
     1
102
RTVSPropertyOp13
 70
     1
102
RTVSPropertyOp14
 70
     1
102
RTVSPropertyOp15
 70
     1
102
RTVSPropertyOp16
 70
     1
102
RTVSPropertyOp17
 70
     1
102
RTVSPropertyOp18
 70
     1
102
RTVSPropertyOp19
 70
     1
102
RTVSPropertyOp20
 70
     1
102
RTVSPropertyOp21
 70
     1
102
RTVSPropertyOp22
 70
     1
102
RTVSPropertyOp23
 70
     1
102
RTVSPropertyOp24
 70
     1
102
RTVSPropertyOp25
 70
     1
102
RTVSPropertyOp26
 70
     1
102
RTVSPropertyOp27
 70
     1
102
RTVSPropertyOp28
 70
     1
102
RTVSPropertyOp29
 70
     1
102
RTVSPropertyOp30
 70
     1
102
RTVSPropertyOp31
 70
     1
102
RTVSPropertyOp32
 70
     1
102
RTVSPropertyOp33
 70
     1
102
RTVSPropertyOp34
 70
     1
102
RTVSPropertyOp35
 70
     1
102
RTVSPropertyOp36
 70
     1
102
RTVSPropertyOp37
 70
     1
102
RTVSPropertyOp38
 70
     1
102
RTVSPropertyOp39
 70
     1
102
RTVSPropertyOp40
 70
     1
102
RTVSPropertyOp41
 70
     1
102
RTVSPropertyOp42
 70
     1
102
RTVSPropertyOp43
 70
     1
102
RTVSPropertyOp44
 70
     1
102
RTVSPropertyOp45
 70
     1
102
RTVSPropertyOp46
 70
     1
102
RTVSPropertyOp47
 70
     1
102
RTVSPropertyOp48
 70
     1
102
RTVSPropertyOp49
 70
     1
102
RTVSPropertyOp50
 70
     1
102
RTVSPropertyOp51
 70
     0
102
RTVSPropertyOp52
 70
     0
102
RTVSPropertyOp53
 70
     1
102
RTVSPropertyOp54
 70
     1
102
RTVSPropertyOp55
 70
     1
102
RTVSPropertyOp56
 70
     1
102
RTVSPropertyOp57
 70
     1
102
RTVSPropertyOp58
 70
     1
102
RTVSPropertyOp59
 70
     1
102
RTVSPropertyOp60
 70
     1
102
RTVSPropertyOp61
 70
     1
102
RTVSPropertyOp62
 70
     1
  0
XRECORD
  5
BCA3
102
{ACAD_REACTORS
330
BCA2
102
}
330
BCA2
100
AcDbXrecord
280
     1
102
RTVSPost2010Prop28
280
     0
102
RTVSPost2010PropOp28
 70
     1
102
RTVSPost2010Prop29
280
     1
102
RTVSPost2010PropOp29
 70
     1
102
RTVSPost2010Prop30
280
     1
102
RTVSPost2010PropOp30
 70
     1
102
RTVSPost2010Prop31
280
     0
102
RTVSPost2010PropOp31
 70
     1
102
RTVSPost2010Prop32
280
     0
102
RTVSPost2010PropOp32
 70
     1
102
RTVSPost2010Prop33
280
     0
102
RTVSPost2010PropOp33
 70
     1
102
RTVSPost2010Prop34
280
     0
102
RTVSPost2010PropOp34
 70
     1
102
RTVSPost2010Prop35
280
     0
102
RTVSPost2010PropOp35
 70
     1
102
RTVSPost2010Prop36
280
     0
102
RTVSPost2010PropOp36
 70
     1
102
RTVSPost2010Prop37
 90
       50
102
RTVSPost2010PropOp37
 70
     1
102
RTVSPost2010Prop38
140
0.0
102
RTVSPost2010PropOp38
 70
     1
102
RTVSPost2010Prop39
140
1.0
102
RTVSPost2010PropOp39
 70
     1
102
RTVSPost2010Prop40
 90
        0
102
RTVSPost2010PropOp40
 70
     1
102
RTVSPost2010Prop41ColorIndex
 90
       18
102
RTVSPost2010Prop41ColorRGB
 90
        0
102
RTVSPost2010PropOp41
 70
     1
102
RTVSPost2010Prop42
 90
       50
102
RTVSPost2010PropOp42
 70
     1
102
RTVSPost2010Prop43
 90
        3
102
RTVSPost2010PropOp43
 70
     1
102
RTVSPost2010Prop44ColorIndex
 90
        5
102
RTVSPost2010Prop44ColorRGB
 90
      255
102
RTVSPost2010PropOp44
 70
     1
102
RTVSPost2010Prop45
280
     0
102
RTVSPost2010PropOp45
 70
     1
102
RTVSPost2010Prop46
 90
       50
102
RTVSPost2010PropOp46
 70
     1
102
RTVSPost2010Prop47
 90
       50
102
RTVSPost2010PropOp47
 70
     1
102
RTVSPost2010Prop48
 90
       50
102
RTVSPost2010PropOp48
 70
     1
102
RTVSPost2010Prop49
280
     0
102
RTVSPost2010PropOp49
 70
     1
102
RTVSPost2010Prop50
 90
       50
102
RTVSPost2010PropOp50
 70
     1
102
RTVSPost2010Prop51ColorIndex
 90
      256
102
RTVSPost2010Prop51ColorRGB
 90
-16777216
102
RTVSPost2010PropOp51
 70
     0
102
RTVSPost2010Prop52
140
1.0
102
RTVSPost2010PropOp52
 70
     0
102
RTVSPost2010Prop53
 90
        2
102
RTVSPost2010PropOp53
 70
     1
102
RTVSPost2010Prop54
  1
strokes_ogs.tif
102
RTVSPost2010PropOp54
 70
     1
102
RTVSPost2010Prop55
280
     0
102
RTVSPost2010PropOp55
 70
     1
102
RTVSPost2010Prop56
140
1.0
102
RTVSPost2010PropOp56
 70
     1
102
RTVSPost2010Prop57
140
1.0
102
RTVSPost2010PropOp57
 70
     1
102
RTVSPropertyOp0
 70
     1
102
RTVSPropertyOp1
 70
     1
102
RTVSPropertyOp2
 70
     1
102
RTVSPropertyOp3
 70
     1
102
RTVSPropertyOp4
 70
     1
102
RTVSPropertyOp5
 70
     1
102
RTVSPropertyOp6
 70
     1
102
RTVSPropertyOp7
 70
     1
102
RTVSPropertyOp8
 70
     1
102
RTVSPropertyOp9
 70
     1
102
RTVSPropertyOp10
 70
     1
102
RTVSPropertyOp11
 70
     1
102
RTVSPropertyOp12
 70
     1
102
RTVSPropertyOp13
 70
     1
102
RTVSPropertyOp14
 70
     1
102
RTVSPropertyOp15
 70
     1
102
RTVSPropertyOp16
 70
     1
102
RTVSPropertyOp17
 70
     1
102
RTVSPropertyOp18
 70
     1
102
RTVSPropertyOp19
 70
     1
102
RTVSPropertyOp20
 70
     1
102
RTVSPropertyOp21
 70
     1
102
RTVSPropertyOp22
 70
     1
102
RTVSPropertyOp23
 70
     1
102
RTVSPropertyOp24
 70
     1
102
RTVSPropertyOp25
 70
     1
102
RTVSPropertyOp26
 70
     1
102
RTVSPropertyOp27
 70
     1
102
RTVSPropertyOp28
 70
     1
102
RTVSPropertyOp29
 70
     1
102
RTVSPropertyOp30
 70
     1
102
RTVSPropertyOp31
 70
     1
102
RTVSPropertyOp32
 70
     1
102
RTVSPropertyOp33
 70
     1
102
RTVSPropertyOp34
 70
     1
102
RTVSPropertyOp35
 70
     1
102
RTVSPropertyOp36
 70
     1
102
RTVSPropertyOp37
 70
     1
102
RTVSPropertyOp38
 70
     1
102
RTVSPropertyOp39
 70
     1
102
RTVSPropertyOp40
 70
     1
102
RTVSPropertyOp41
 70
     1
102
RTVSPropertyOp42
 70
     1
102
RTVSPropertyOp43
 70
     1
102
RTVSPropertyOp44
 70
     1
102
RTVSPropertyOp45
 70
     1
102
RTVSPropertyOp46
 70
     1
102
RTVSPropertyOp47
 70
     1
102
RTVSPropertyOp48
 70
     1
102
RTVSPropertyOp49
 70
     1
102
RTVSPropertyOp50
 70
     1
102
RTVSPropertyOp51
 70
     0
102
RTVSPropertyOp52
 70
     0
102
RTVSPropertyOp53
 70
     1
102
RTVSPropertyOp54
 70
     1
102
RTVSPropertyOp55
 70
     1
102
RTVSPropertyOp56
 70
     1
102
RTVSPropertyOp57
 70
     1
102
RTVSPropertyOp58
 70
     1
102
RTVSPropertyOp59
 70
     1
102
RTVSPropertyOp60
 70
     1
102
RTVSPropertyOp61
 70
     1
102
RTVSPropertyOp62
 70
     1
  0
XRECORD
  5
BCAB
102
{ACAD_REACTORS
330
BCAA
102
}
330
BCAA
100
AcDbXrecord
280
     1
102
RTVSPost2010Prop28
280
     0
102
RTVSPost2010PropOp28
 70
     1
102
RTVSPost2010Prop29
280
     1
102
RTVSPost2010PropOp29
 70
     1
102
RTVSPost2010Prop30
280
     1
102
RTVSPost2010PropOp30
 70
     1
102
RTVSPost2010Prop31
280
     0
102
RTVSPost2010PropOp31
 70
     1
102
RTVSPost2010Prop32
280
     0
102
RTVSPost2010PropOp32
 70
     1
102
RTVSPost2010Prop33
280
     0
102
RTVSPost2010PropOp33
 70
     1
102
RTVSPost2010Prop34
280
     0
102
RTVSPost2010PropOp34
 70
     1
102
RTVSPost2010Prop35
280
     0
102
RTVSPost2010PropOp35
 70
     1
102
RTVSPost2010Prop36
280
     0
102
RTVSPost2010PropOp36
 70
     1
102
RTVSPost2010Prop37
 90
       50
102
RTVSPost2010PropOp37
 70
     1
102
RTVSPost2010Prop38
140
0.0
102
RTVSPost2010PropOp38
 70
     1
102
RTVSPost2010Prop39
140
1.0
102
RTVSPost2010PropOp39
 70
     1
102
RTVSPost2010Prop40
 90
        0
102
RTVSPost2010PropOp40
 70
     1
102
RTVSPost2010Prop41ColorIndex
 90
       18
102
RTVSPost2010Prop41ColorRGB
 90
        0
102
RTVSPost2010PropOp41
 70
     1
102
RTVSPost2010Prop42
 90
       50
102
RTVSPost2010PropOp42
 70
     1
102
RTVSPost2010Prop43
 90
        3
102
RTVSPost2010PropOp43
 70
     1
102
RTVSPost2010Prop44ColorIndex
 90
        5
102
RTVSPost2010Prop44ColorRGB
 90
      255
102
RTVSPost2010PropOp44
 70
     1
102
RTVSPost2010Prop45
280
     0
102
RTVSPost2010PropOp45
 70
     1
102
RTVSPost2010Prop46
 90
       50
102
RTVSPost2010PropOp46
 70
     1
102
RTVSPost2010Prop47
 90
       50
102
RTVSPost2010PropOp47
 70
     1
102
RTVSPost2010Prop48
 90
       50
102
RTVSPost2010PropOp48
 70
     1
102
RTVSPost2010Prop49
280
     0
102
RTVSPost2010PropOp49
 70
     1
102
RTVSPost2010Prop50
 90
       50
102
RTVSPost2010PropOp50
 70
     1
102
RTVSPost2010Prop51ColorIndex
 90
      256
102
RTVSPost2010Prop51ColorRGB
 90
-16777216
102
RTVSPost2010PropOp51
 70
     0
102
RTVSPost2010Prop52
140
1.0
102
RTVSPost2010PropOp52
 70
     0
102
RTVSPost2010Prop53
 90
        2
102
RTVSPost2010PropOp53
 70
     1
102
RTVSPost2010Prop54
  1
strokes_ogs.tif
102
RTVSPost2010PropOp54
 70
     1
102
RTVSPost2010Prop55
280
     0
102
RTVSPost2010PropOp55
 70
     1
102
RTVSPost2010Prop56
140
1.0
102
RTVSPost2010PropOp56
 70
     1
102
RTVSPost2010Prop57
140
1.0
102
RTVSPost2010PropOp57
 70
     1
102
RTVSPropertyOp0
 70
     1
102
RTVSPropertyOp1
 70
     1
102
RTVSPropertyOp2
 70
     1
102
RTVSPropertyOp3
 70
     1
102
RTVSPropertyOp4
 70
     1
102
RTVSPropertyOp5
 70
     1
102
RTVSPropertyOp6
 70
     1
102
RTVSPropertyOp7
 70
     1
102
RTVSPropertyOp8
 70
     1
102
RTVSPropertyOp9
 70
     1
102
RTVSPropertyOp10
 70
     1
102
RTVSPropertyOp11
 70
     1
102
RTVSPropertyOp12
 70
     1
102
RTVSPropertyOp13
 70
     1
102
RTVSPropertyOp14
 70
     1
102
RTVSPropertyOp15
 70
     1
102
RTVSPropertyOp16
 70
     1
102
RTVSPropertyOp17
 70
     1
102
RTVSPropertyOp18
 70
     1
102
RTVSPropertyOp19
 70
     1
102
RTVSPropertyOp20
 70
     1
102
RTVSPropertyOp21
 70
     1
102
RTVSPropertyOp22
 70
     1
102
RTVSPropertyOp23
 70
     1
102
RTVSPropertyOp24
 70
     1
102
RTVSPropertyOp25
 70
     1
102
RTVSPropertyOp26
 70
     1
102
RTVSPropertyOp27
 70
     1
102
RTVSPropertyOp28
 70
     1
102
RTVSPropertyOp29
 70
     1
102
RTVSPropertyOp30
 70
     1
102
RTVSPropertyOp31
 70
     1
102
RTVSPropertyOp32
 70
     1
102
RTVSPropertyOp33
 70
     1
102
RTVSPropertyOp34
 70
     1
102
RTVSPropertyOp35
 70
     1
102
RTVSPropertyOp36
 70
     1
102
RTVSPropertyOp37
 70
     1
102
RTVSPropertyOp38
 70
     1
102
RTVSPropertyOp39
 70
     1
102
RTVSPropertyOp40
 70
     1
102
RTVSPropertyOp41
 70
     1
102
RTVSPropertyOp42
 70
     1
102
RTVSPropertyOp43
 70
     1
102
RTVSPropertyOp44
 70
     1
102
RTVSPropertyOp45
 70
     1
102
RTVSPropertyOp46
 70
     1
102
RTVSPropertyOp47
 70
     1
102
RTVSPropertyOp48
 70
     1
102
RTVSPropertyOp49
 70
     1
102
RTVSPropertyOp50
 70
     1
102
RTVSPropertyOp51
 70
     0
102
RTVSPropertyOp52
 70
     0
102
RTVSPropertyOp53
 70
     1
102
RTVSPropertyOp54
 70
     1
102
RTVSPropertyOp55
 70
     1
102
RTVSPropertyOp56
 70
     1
102
RTVSPropertyOp57
 70
     1
102
RTVSPropertyOp58
 70
     1
102
RTVSPropertyOp59
 70
     1
102
RTVSPropertyOp60
 70
     1
102
RTVSPropertyOp61
 70
     1
102
RTVSPropertyOp62
 70
     1
  0
XRECORD
  5
BC9D
102
{ACAD_REACTORS
330
BC9C
102
}
330
BC9C
100
AcDbXrecord
280
     1
102
RTVSPost2010Prop28
280
     0
102
RTVSPost2010PropOp28
 70
     1
102
RTVSPost2010Prop29
280
     1
102
RTVSPost2010PropOp29
 70
     1
102
RTVSPost2010Prop30
280
     1
102
RTVSPost2010PropOp30
 70
     1
102
RTVSPost2010Prop31
280
     0
102
RTVSPost2010PropOp31
 70
     1
102
RTVSPost2010Prop32
280
     0
102
RTVSPost2010PropOp32
 70
     1
102
RTVSPost2010Prop33
280
     0
102
RTVSPost2010PropOp33
 70
     1
102
RTVSPost2010Prop34
280
     0
102
RTVSPost2010PropOp34
 70
     1
102
RTVSPost2010Prop35
280
     0
102
RTVSPost2010PropOp35
 70
     1
102
RTVSPost2010Prop36
280
     0
102
RTVSPost2010PropOp36
 70
     1
102
RTVSPost2010Prop37
 90
       50
102
RTVSPost2010PropOp37
 70
     1
102
RTVSPost2010Prop38
140
0.0
102
RTVSPost2010PropOp38
 70
     1
102
RTVSPost2010Prop39
140
1.0
102
RTVSPost2010PropOp39
 70
     1
102
RTVSPost2010Prop40
 90
        0
102
RTVSPost2010PropOp40
 70
     1
102
RTVSPost2010Prop41ColorIndex
 90
       18
102
RTVSPost2010Prop41ColorRGB
 90
        0
102
RTVSPost2010PropOp41
 70
     1
102
RTVSPost2010Prop42
 90
       50
102
RTVSPost2010PropOp42
 70
     1
102
RTVSPost2010Prop43
 90
        3
102
RTVSPost2010PropOp43
 70
     1
102
RTVSPost2010Prop44ColorIndex
 90
        5
102
RTVSPost2010Prop44ColorRGB
 90
      255
102
RTVSPost2010PropOp44
 70
     1
102
RTVSPost2010Prop45
280
     0
102
RTVSPost2010PropOp45
 70
     1
102
RTVSPost2010Prop46
 90
       50
102
RTVSPost2010PropOp46
 70
     1
102
RTVSPost2010Prop47
 90
       50
102
RTVSPost2010PropOp47
 70
     1
102
RTVSPost2010Prop48
 90
       50
102
RTVSPost2010PropOp48
 70
     1
102
RTVSPost2010Prop49
280
     0
102
RTVSPost2010PropOp49
 70
     1
102
RTVSPost2010Prop50
 90
       50
102
RTVSPost2010PropOp50
 70
     1
102
RTVSPost2010Prop51ColorIndex
 90
      256
102
RTVSPost2010Prop51ColorRGB
 90
-16777216
102
RTVSPost2010PropOp51
 70
     0
102
RTVSPost2010Prop52
140
1.0
102
RTVSPost2010PropOp52
 70
     0
102
RTVSPost2010Prop53
 90
        2
102
RTVSPost2010PropOp53
 70
     1
102
RTVSPost2010Prop54
  1
strokes_ogs.tif
102
RTVSPost2010PropOp54
 70
     1
102
RTVSPost2010Prop55
280
     0
102
RTVSPost2010PropOp55
 70
     1
102
RTVSPost2010Prop56
140
1.0
102
RTVSPost2010PropOp56
 70
     1
102
RTVSPost2010Prop57
140
1.0
102
RTVSPost2010PropOp57
 70
     1
102
RTVSPropertyOp0
 70
     1
102
RTVSPropertyOp1
 70
     1
102
RTVSPropertyOp2
 70
     1
102
RTVSPropertyOp3
 70
     1
102
RTVSPropertyOp4
 70
     1
102
RTVSPropertyOp5
 70
     1
102
RTVSPropertyOp6
 70
     1
102
RTVSPropertyOp7
 70
     1
102
RTVSPropertyOp8
 70
     1
102
RTVSPropertyOp9
 70
     1
102
RTVSPropertyOp10
 70
     1
102
RTVSPropertyOp11
 70
     1
102
RTVSPropertyOp12
 70
     1
102
RTVSPropertyOp13
 70
     1
102
RTVSPropertyOp14
 70
     1
102
RTVSPropertyOp15
 70
     1
102
RTVSPropertyOp16
 70
     1
102
RTVSPropertyOp17
 70
     1
102
RTVSPropertyOp18
 70
     1
102
RTVSPropertyOp19
 70
     1
102
RTVSPropertyOp20
 70
     1
102
RTVSPropertyOp21
 70
     1
102
RTVSPropertyOp22
 70
     1
102
RTVSPropertyOp23
 70
     1
102
RTVSPropertyOp24
 70
     1
102
RTVSPropertyOp25
 70
     1
102
RTVSPropertyOp26
 70
     1
102
RTVSPropertyOp27
 70
     1
102
RTVSPropertyOp28
 70
     1
102
RTVSPropertyOp29
 70
     1
102
RTVSPropertyOp30
 70
     1
102
RTVSPropertyOp31
 70
     1
102
RTVSPropertyOp32
 70
     1
102
RTVSPropertyOp33
 70
     1
102
RTVSPropertyOp34
 70
     1
102
RTVSPropertyOp35
 70
     1
102
RTVSPropertyOp36
 70
     1
102
RTVSPropertyOp37
 70
     1
102
RTVSPropertyOp38
 70
     1
102
RTVSPropertyOp39
 70
     1
102
RTVSPropertyOp40
 70
     1
102
RTVSPropertyOp41
 70
     1
102
RTVSPropertyOp42
 70
     1
102
RTVSPropertyOp43
 70
     1
102
RTVSPropertyOp44
 70
     1
102
RTVSPropertyOp45
 70
     1
102
RTVSPropertyOp46
 70
     1
102
RTVSPropertyOp47
 70
     1
102
RTVSPropertyOp48
 70
     1
102
RTVSPropertyOp49
 70
     1
102
RTVSPropertyOp50
 70
     1
102
RTVSPropertyOp51
 70
     0
102
RTVSPropertyOp52
 70
     0
102
RTVSPropertyOp53
 70
     1
102
RTVSPropertyOp54
 70
     1
102
RTVSPropertyOp55
 70
     1
102
RTVSPropertyOp56
 70
     1
102
RTVSPropertyOp57
 70
     1
102
RTVSPropertyOp58
 70
     1
102
RTVSPropertyOp59
 70
     1
102
RTVSPropertyOp60
 70
     1
102
RTVSPropertyOp61
 70
     1
102
RTVSPropertyOp62
 70
     1
  0
XRECORD
  5
BCA1
102
{ACAD_REACTORS
330
BCA0
102
}
330
BCA0
100
AcDbXrecord
280
     1
102
RTVSPost2010Prop28
280
     0
102
RTVSPost2010PropOp28
 70
     1
102
RTVSPost2010Prop29
280
     1
102
RTVSPost2010PropOp29
 70
     1
102
RTVSPost2010Prop30
280
     1
102
RTVSPost2010PropOp30
 70
     1
102
RTVSPost2010Prop31
280
     0
102
RTVSPost2010PropOp31
 70
     1
102
RTVSPost2010Prop32
280
     0
102
RTVSPost2010PropOp32
 70
     1
102
RTVSPost2010Prop33
280
     0
102
RTVSPost2010PropOp33
 70
     1
102
RTVSPost2010Prop34
280
     0
102
RTVSPost2010PropOp34
 70
     1
102
RTVSPost2010Prop35
280
     0
102
RTVSPost2010PropOp35
 70
     1
102
RTVSPost2010Prop36
280
     0
102
RTVSPost2010PropOp36
 70
     1
102
RTVSPost2010Prop37
 90
       50
102
RTVSPost2010PropOp37
 70
     1
102
RTVSPost2010Prop38
140
0.0
102
RTVSPost2010PropOp38
 70
     1
102
RTVSPost2010Prop39
140
1.0
102
RTVSPost2010PropOp39
 70
     1
102
RTVSPost2010Prop40
 90
        0
102
RTVSPost2010PropOp40
 70
     1
102
RTVSPost2010Prop41ColorIndex
 90
       18
102
RTVSPost2010Prop41ColorRGB
 90
        0
102
RTVSPost2010PropOp41
 70
     1
102
RTVSPost2010Prop42
 90
       50
102
RTVSPost2010PropOp42
 70
     1
102
RTVSPost2010Prop43
 90
        3
102
RTVSPost2010PropOp43
 70
     1
102
RTVSPost2010Prop44ColorIndex
 90
        5
102
RTVSPost2010Prop44ColorRGB
 90
      255
102
RTVSPost2010PropOp44
 70
     1
102
RTVSPost2010Prop45
280
     0
102
RTVSPost2010PropOp45
 70
     1
102
RTVSPost2010Prop46
 90
       50
102
RTVSPost2010PropOp46
 70
     1
102
RTVSPost2010Prop47
 90
       50
102
RTVSPost2010PropOp47
 70
     1
102
RTVSPost2010Prop48
 90
       50
102
RTVSPost2010PropOp48
 70
     1
102
RTVSPost2010Prop49
280
     0
102
RTVSPost2010PropOp49
 70
     1
102
RTVSPost2010Prop50
 90
       50
102
RTVSPost2010PropOp50
 70
     1
102
RTVSPost2010Prop51ColorIndex
 90
      256
102
RTVSPost2010Prop51ColorRGB
 90
-16777216
102
RTVSPost2010PropOp51
 70
     0
102
RTVSPost2010Prop52
140
1.0
102
RTVSPost2010PropOp52
 70
     0
102
RTVSPost2010Prop53
 90
        2
102
RTVSPost2010PropOp53
 70
     1
102
RTVSPost2010Prop54
  1
strokes_ogs.tif
102
RTVSPost2010PropOp54
 70
     1
102
RTVSPost2010Prop55
280
     0
102
RTVSPost2010PropOp55
 70
     1
102
RTVSPost2010Prop56
140
1.0
102
RTVSPost2010PropOp56
 70
     1
102
RTVSPost2010Prop57
140
1.0
102
RTVSPost2010PropOp57
 70
     1
102
RTVSPropertyOp0
 70
     1
102
RTVSPropertyOp1
 70
     1
102
RTVSPropertyOp2
 70
     1
102
RTVSPropertyOp3
 70
     1
102
RTVSPropertyOp4
 70
     1
102
RTVSPropertyOp5
 70
     1
102
RTVSPropertyOp6
 70
     1
102
RTVSPropertyOp7
 70
     1
102
RTVSPropertyOp8
 70
     1
102
RTVSPropertyOp9
 70
     1
102
RTVSPropertyOp10
 70
     1
102
RTVSPropertyOp11
 70
     1
102
RTVSPropertyOp12
 70
     1
102
RTVSPropertyOp13
 70
     1
102
RTVSPropertyOp14
 70
     1
102
RTVSPropertyOp15
 70
     1
102
RTVSPropertyOp16
 70
     1
102
RTVSPropertyOp17
 70
     1
102
RTVSPropertyOp18
 70
     1
102
RTVSPropertyOp19
 70
     1
102
RTVSPropertyOp20
 70
     1
102
RTVSPropertyOp21
 70
     1
102
RTVSPropertyOp22
 70
     1
102
RTVSPropertyOp23
 70
     1
102
RTVSPropertyOp24
 70
     1
102
RTVSPropertyOp25
 70
     1
102
RTVSPropertyOp26
 70
     1
102
RTVSPropertyOp27
 70
     1
102
RTVSPropertyOp28
 70
     1
102
RTVSPropertyOp29
 70
     1
102
RTVSPropertyOp30
 70
     1
102
RTVSPropertyOp31
 70
     1
102
RTVSPropertyOp32
 70
     1
102
RTVSPropertyOp33
 70
     1
102
RTVSPropertyOp34
 70
     1
102
RTVSPropertyOp35
 70
     1
102
RTVSPropertyOp36
 70
     1
102
RTVSPropertyOp37
 70
     1
102
RTVSPropertyOp38
 70
     1
102
RTVSPropertyOp39
 70
     1
102
RTVSPropertyOp40
 70
     1
102
RTVSPropertyOp41
 70
     1
102
RTVSPropertyOp42
 70
     1
102
RTVSPropertyOp43
 70
     1
102
RTVSPropertyOp44
 70
     1
102
RTVSPropertyOp45
 70
     1
102
RTVSPropertyOp46
 70
     1
102
RTVSPropertyOp47
 70
     1
102
RTVSPropertyOp48
 70
     1
102
RTVSPropertyOp49
 70
     1
102
RTVSPropertyOp50
 70
     1
102
RTVSPropertyOp51
 70
     0
102
RTVSPropertyOp52
 70
     0
102
RTVSPropertyOp53
 70
     1
102
RTVSPropertyOp54
 70
     1
102
RTVSPropertyOp55
 70
     1
102
RTVSPropertyOp56
 70
     1
102
RTVSPropertyOp57
 70
     1
102
RTVSPropertyOp58
 70
     1
102
RTVSPropertyOp59
 70
     1
102
RTVSPropertyOp60
 70
     1
102
RTVSPropertyOp61
 70
     1
102
RTVSPropertyOp62
 70
     1
  0
XRECORD
  5
BCB3
102
{ACAD_REACTORS
330
BCB2
102
}
330
BCB2
100
AcDbXrecord
280
     1
102
RTVSPost2010Prop28
280
     0
102
RTVSPost2010PropOp28
 70
     1
102
RTVSPost2010Prop29
280
     1
102
RTVSPost2010PropOp29
 70
     1
102
RTVSPost2010Prop30
280
     1
102
RTVSPost2010PropOp30
 70
     1
102
RTVSPost2010Prop31
280
     0
102
RTVSPost2010PropOp31
 70
     1
102
RTVSPost2010Prop32
280
     0
102
RTVSPost2010PropOp32
 70
     1
102
RTVSPost2010Prop33
280
     0
102
RTVSPost2010PropOp33
 70
     1
102
RTVSPost2010Prop34
280
     0
102
RTVSPost2010PropOp34
 70
     1
102
RTVSPost2010Prop35
280
     0
102
RTVSPost2010PropOp35
 70
     1
102
RTVSPost2010Prop36
280
     0
102
RTVSPost2010PropOp36
 70
     1
102
RTVSPost2010Prop37
 90
       50
102
RTVSPost2010PropOp37
 70
     1
102
RTVSPost2010Prop38
140
0.0
102
RTVSPost2010PropOp38
 70
     1
102
RTVSPost2010Prop39
140
1.0
102
RTVSPost2010PropOp39
 70
     1
102
RTVSPost2010Prop40
 90
        0
102
RTVSPost2010PropOp40
 70
     1
102
RTVSPost2010Prop41ColorIndex
 90
       18
102
RTVSPost2010Prop41ColorRGB
 90
        0
102
RTVSPost2010PropOp41
 70
     1
102
RTVSPost2010Prop42
 90
       50
102
RTVSPost2010PropOp42
 70
     1
102
RTVSPost2010Prop43
 90
        3
102
RTVSPost2010PropOp43
 70
     1
102
RTVSPost2010Prop44ColorIndex
 90
        5
102
RTVSPost2010Prop44ColorRGB
 90
      255
102
RTVSPost2010PropOp44
 70
     1
102
RTVSPost2010Prop45
280
     0
102
RTVSPost2010PropOp45
 70
     1
102
RTVSPost2010Prop46
 90
       50
102
RTVSPost2010PropOp46
 70
     1
102
RTVSPost2010Prop47
 90
       50
102
RTVSPost2010PropOp47
 70
     1
102
RTVSPost2010Prop48
 90
       50
102
RTVSPost2010PropOp48
 70
     1
102
RTVSPost2010Prop49
280
     0
102
RTVSPost2010PropOp49
 70
     1
102
RTVSPost2010Prop50
 90
       50
102
RTVSPost2010PropOp50
 70
     1
102
RTVSPost2010Prop51ColorIndex
 90
      256
102
RTVSPost2010Prop51ColorRGB
 90
-16777216
102
RTVSPost2010PropOp51
 70
     0
102
RTVSPost2010Prop52
140
1.0
102
RTVSPost2010PropOp52
 70
     0
102
RTVSPost2010Prop53
 90
        2
102
RTVSPost2010PropOp53
 70
     1
102
RTVSPost2010Prop54
  1
strokes_ogs.tif
102
RTVSPost2010PropOp54
 70
     1
102
RTVSPost2010Prop55
280
     0
102
RTVSPost2010PropOp55
 70
     1
102
RTVSPost2010Prop56
140
1.0
102
RTVSPost2010PropOp56
 70
     1
102
RTVSPost2010Prop57
140
1.0
102
RTVSPost2010PropOp57
 70
     1
102
RTVSPropertyOp0
 70
     0
102
RTVSPropertyOp1
 70
     0
102
RTVSPropertyOp2
 70
     0
102
RTVSPropertyOp3
 70
     0
102
RTVSPropertyOp4
 70
     0
102
RTVSPropertyOp5
 70
     0
102
RTVSPropertyOp6
 70
     0
102
RTVSPropertyOp7
 70
     0
102
RTVSPropertyOp8
 70
     0
102
RTVSPropertyOp9
 70
     0
102
RTVSPropertyOp10
 70
     0
102
RTVSPropertyOp11
 70
     0
102
RTVSPropertyOp12
 70
     0
102
RTVSPropertyOp13
 70
     0
102
RTVSPropertyOp14
 70
     2
102
RTVSPropertyOp15
 70
     0
102
RTVSPropertyOp16
 70
     0
102
RTVSPropertyOp17
 70
     0
102
RTVSPropertyOp18
 70
     0
102
RTVSPropertyOp19
 70
     0
102
RTVSPropertyOp20
 70
     0
102
RTVSPropertyOp21
 70
     0
102
RTVSPropertyOp22
 70
     0
102
RTVSPropertyOp23
 70
     0
102
RTVSPropertyOp24
 70
     0
102
RTVSPropertyOp25
 70
     0
102
RTVSPropertyOp26
 70
     0
102
RTVSPropertyOp27
 70
     0
102
RTVSPropertyOp28
 70
     1
102
RTVSPropertyOp29
 70
     1
102
RTVSPropertyOp30
 70
     1
102
RTVSPropertyOp31
 70
     1
102
RTVSPropertyOp32
 70
     1
102
RTVSPropertyOp33
 70
     1
102
RTVSPropertyOp34
 70
     1
102
RTVSPropertyOp35
 70
     1
102
RTVSPropertyOp36
 70
     1
102
RTVSPropertyOp37
 70
     1
102
RTVSPropertyOp38
 70
     1
102
RTVSPropertyOp39
 70
     1
102
RTVSPropertyOp40
 70
     1
102
RTVSPropertyOp41
 70
     1
102
RTVSPropertyOp42
 70
     1
102
RTVSPropertyOp43
 70
     1
102
RTVSPropertyOp44
 70
     1
102
RTVSPropertyOp45
 70
     1
102
RTVSPropertyOp46
 70
     1
102
RTVSPropertyOp47
 70
     1
102
RTVSPropertyOp48
 70
     1
102
RTVSPropertyOp49
 70
     1
102
RTVSPropertyOp50
 70
     1
102
RTVSPropertyOp51
 70
     0
102
RTVSPropertyOp52
 70
     0
102
RTVSPropertyOp53
 70
     1
102
RTVSPropertyOp54
 70
     1
102
RTVSPropertyOp55
 70
     1
102
RTVSPropertyOp56
 70
     1
102
RTVSPropertyOp57
 70
     1
102
RTVSPropertyOp58
 70
     1
102
RTVSPropertyOp59
 70
     1
102
RTVSPropertyOp60
 70
     1
102
RTVSPropertyOp61
 70
     1
102
RTVSPropertyOp62
 70
     1
  0
XRECORD
  5
BCA9
102
{ACAD_REACTORS
330
BCA8
102
}
330
BCA8
100
AcDbXrecord
280
     1
102
RTVSPost2010Prop28
280
     0
102
RTVSPost2010PropOp28
 70
     1
102
RTVSPost2010Prop29
280
     1
102
RTVSPost2010PropOp29
 70
     1
102
RTVSPost2010Prop30
280
     1
102
RTVSPost2010PropOp30
 70
     1
102
RTVSPost2010Prop31
280
     0
102
RTVSPost2010PropOp31
 70
     1
102
RTVSPost2010Prop32
280
     0
102
RTVSPost2010PropOp32
 70
     1
102
RTVSPost2010Prop33
280
     0
102
RTVSPost2010PropOp33
 70
     1
102
RTVSPost2010Prop34
280
     0
102
RTVSPost2010PropOp34
 70
     1
102
RTVSPost2010Prop35
280
     0
102
RTVSPost2010PropOp35
 70
     1
102
RTVSPost2010Prop36
280
     0
102
RTVSPost2010PropOp36
 70
     1
102
RTVSPost2010Prop37
 90
       50
102
RTVSPost2010PropOp37
 70
     1
102
RTVSPost2010Prop38
140
0.0
102
RTVSPost2010PropOp38
 70
     1
102
RTVSPost2010Prop39
140
1.0
102
RTVSPost2010PropOp39
 70
     1
102
RTVSPost2010Prop40
 90
        0
102
RTVSPost2010PropOp40
 70
     1
102
RTVSPost2010Prop41ColorIndex
 90
       18
102
RTVSPost2010Prop41ColorRGB
 90
        0
102
RTVSPost2010PropOp41
 70
     1
102
RTVSPost2010Prop42
 90
       50
102
RTVSPost2010PropOp42
 70
     1
102
RTVSPost2010Prop43
 90
        3
102
RTVSPost2010PropOp43
 70
     1
102
RTVSPost2010Prop44ColorIndex
 90
        5
102
RTVSPost2010Prop44ColorRGB
 90
      255
102
RTVSPost2010PropOp44
 70
     1
102
RTVSPost2010Prop45
280
     0
102
RTVSPost2010PropOp45
 70
     1
102
RTVSPost2010Prop46
 90
       50
102
RTVSPost2010PropOp46
 70
     1
102
RTVSPost2010Prop47
 90
       50
102
RTVSPost2010PropOp47
 70
     1
102
RTVSPost2010Prop48
 90
       50
102
RTVSPost2010PropOp48
 70
     1
102
RTVSPost2010Prop49
280
     0
102
RTVSPost2010PropOp49
 70
     1
102
RTVSPost2010Prop50
 90
       50
102
RTVSPost2010PropOp50
 70
     1
102
RTVSPost2010Prop51ColorIndex
 90
      256
102
RTVSPost2010Prop51ColorRGB
 90
-16777216
102
RTVSPost2010PropOp51
 70
     0
102
RTVSPost2010Prop52
140
1.0
102
RTVSPost2010PropOp52
 70
     0
102
RTVSPost2010Prop53
 90
        2
102
RTVSPost2010PropOp53
 70
     1
102
RTVSPost2010Prop54
  1
strokes_ogs.tif
102
RTVSPost2010PropOp54
 70
     1
102
RTVSPost2010Prop55
280
     0
102
RTVSPost2010PropOp55
 70
     1
102
RTVSPost2010Prop56
140
1.0
102
RTVSPost2010PropOp56
 70
     1
102
RTVSPost2010Prop57
140
1.0
102
RTVSPost2010PropOp57
 70
     1
102
RTVSPropertyOp0
 70
     1
102
RTVSPropertyOp1
 70
     1
102
RTVSPropertyOp2
 70
     1
102
RTVSPropertyOp3
 70
     1
102
RTVSPropertyOp4
 70
     1
102
RTVSPropertyOp5
 70
     1
102
RTVSPropertyOp6
 70
     1
102
RTVSPropertyOp7
 70
     1
102
RTVSPropertyOp8
 70
     1
102
RTVSPropertyOp9
 70
     1
102
RTVSPropertyOp10
 70
     1
102
RTVSPropertyOp11
 70
     1
102
RTVSPropertyOp12
 70
     1
102
RTVSPropertyOp13
 70
     1
102
RTVSPropertyOp14
 70
     1
102
RTVSPropertyOp15
 70
     1
102
RTVSPropertyOp16
 70
     1
102
RTVSPropertyOp17
 70
     1
102
RTVSPropertyOp18
 70
     1
102
RTVSPropertyOp19
 70
     1
102
RTVSPropertyOp20
 70
     1
102
RTVSPropertyOp21
 70
     1
102
RTVSPropertyOp22
 70
     1
102
RTVSPropertyOp23
 70
     1
102
RTVSPropertyOp24
 70
     1
102
RTVSPropertyOp25
 70
     1
102
RTVSPropertyOp26
 70
     1
102
RTVSPropertyOp27
 70
     1
102
RTVSPropertyOp28
 70
     1
102
RTVSPropertyOp29
 70
     1
102
RTVSPropertyOp30
 70
     1
102
RTVSPropertyOp31
 70
     1
102
RTVSPropertyOp32
 70
     1
102
RTVSPropertyOp33
 70
     1
102
RTVSPropertyOp34
 70
     1
102
RTVSPropertyOp35
 70
     1
102
RTVSPropertyOp36
 70
     1
102
RTVSPropertyOp37
 70
     1
102
RTVSPropertyOp38
 70
     1
102
RTVSPropertyOp39
 70
     1
102
RTVSPropertyOp40
 70
     1
102
RTVSPropertyOp41
 70
     1
102
RTVSPropertyOp42
 70
     1
102
RTVSPropertyOp43
 70
     1
102
RTVSPropertyOp44
 70
     1
102
RTVSPropertyOp45
 70
     1
102
RTVSPropertyOp46
 70
     1
102
RTVSPropertyOp47
 70
     1
102
RTVSPropertyOp48
 70
     1
102
RTVSPropertyOp49
 70
     1
102
RTVSPropertyOp50
 70
     1
102
RTVSPropertyOp51
 70
     0
102
RTVSPropertyOp52
 70
     0
102
RTVSPropertyOp53
 70
     1
102
RTVSPropertyOp54
 70
     1
102
RTVSPropertyOp55
 70
     1
102
RTVSPropertyOp56
 70
     1
102
RTVSPropertyOp57
 70
     1
102
RTVSPropertyOp58
 70
     1
102
RTVSPropertyOp59
 70
     1
102
RTVSPropertyOp60
 70
     1
102
RTVSPropertyOp61
 70
     1
102
RTVSPropertyOp62
 70
     1
  0
XRECORD
  5
BC8D
102
{ACAD_REACTORS
330
BC8C
102
}
330
BC8C
100
AcDbXrecord
280
     1
102
RTVSPost2010Prop28
280
     0
102
RTVSPost2010PropOp28
 70
     1
102
RTVSPost2010Prop29
280
     1
102
RTVSPost2010PropOp29
 70
     1
102
RTVSPost2010Prop30
280
     1
102
RTVSPost2010PropOp30
 70
     1
102
RTVSPost2010Prop31
280
     0
102
RTVSPost2010PropOp31
 70
     1
102
RTVSPost2010Prop32
280
     0
102
RTVSPost2010PropOp32
 70
     1
102
RTVSPost2010Prop33
280
     0
102
RTVSPost2010PropOp33
 70
     1
102
RTVSPost2010Prop34
280
     0
102
RTVSPost2010PropOp34
 70
     1
102
RTVSPost2010Prop35
280
     0
102
RTVSPost2010PropOp35
 70
     1
102
RTVSPost2010Prop36
280
     0
102
RTVSPost2010PropOp36
 70
     1
102
RTVSPost2010Prop37
 90
       50
102
RTVSPost2010PropOp37
 70
     1
102
RTVSPost2010Prop38
140
0.0
102
RTVSPost2010PropOp38
 70
     1
102
RTVSPost2010Prop39
140
1.0
102
RTVSPost2010PropOp39
 70
     1
102
RTVSPost2010Prop40
 90
        0
102
RTVSPost2010PropOp40
 70
     1
102
RTVSPost2010Prop41ColorIndex
 90
       18
102
RTVSPost2010Prop41ColorRGB
 90
        0
102
RTVSPost2010PropOp41
 70
     1
102
RTVSPost2010Prop42
 90
       50
102
RTVSPost2010PropOp42
 70
     1
102
RTVSPost2010Prop43
 90
        3
102
RTVSPost2010PropOp43
 70
     1
102
RTVSPost2010Prop44ColorIndex
 90
        5
102
RTVSPost2010Prop44ColorRGB
 90
      255
102
RTVSPost2010PropOp44
 70
     1
102
RTVSPost2010Prop45
280
     0
102
RTVSPost2010PropOp45
 70
     1
102
RTVSPost2010Prop46
 90
       50
102
RTVSPost2010PropOp46
 70
     1
102
RTVSPost2010Prop47
 90
       50
102
RTVSPost2010PropOp47
 70
     1
102
RTVSPost2010Prop48
 90
       50
102
RTVSPost2010PropOp48
 70
     1
102
RTVSPost2010Prop49
280
     0
102
RTVSPost2010PropOp49
 70
     1
102
RTVSPost2010Prop50
 90
       50
102
RTVSPost2010PropOp50
 70
     1
102
RTVSPost2010Prop51ColorIndex
 90
      256
102
RTVSPost2010Prop51ColorRGB
 90
-16777216
102
RTVSPost2010PropOp51
 70
     0
102
RTVSPost2010Prop52
140
1.0
102
RTVSPost2010PropOp52
 70
     0
102
RTVSPost2010Prop53
 90
        2
102
RTVSPost2010PropOp53
 70
     1
102
RTVSPost2010Prop54
  1
strokes_ogs.tif
102
RTVSPost2010PropOp54
 70
     1
102
RTVSPost2010Prop55
280
     0
102
RTVSPost2010PropOp55
 70
     1
102
RTVSPost2010Prop56
140
1.0
102
RTVSPost2010PropOp56
 70
     1
102
RTVSPost2010Prop57
140
1.0
102
RTVSPost2010PropOp57
 70
     1
102
RTVSPropertyOp0
 70
     1
102
RTVSPropertyOp1
 70
     1
102
RTVSPropertyOp2
 70
     1
102
RTVSPropertyOp3
 70
     1
102
RTVSPropertyOp4
 70
     1
102
RTVSPropertyOp5
 70
     1
102
RTVSPropertyOp6
 70
     1
102
RTVSPropertyOp7
 70
     1
102
RTVSPropertyOp8
 70
     1
102
RTVSPropertyOp9
 70
     1
102
RTVSPropertyOp10
 70
     1
102
RTVSPropertyOp11
 70
     1
102
RTVSPropertyOp12
 70
     1
102
RTVSPropertyOp13
 70
     1
102
RTVSPropertyOp14
 70
     1
102
RTVSPropertyOp15
 70
     1
102
RTVSPropertyOp16
 70
     1
102
RTVSPropertyOp17
 70
     1
102
RTVSPropertyOp18
 70
     1
102
RTVSPropertyOp19
 70
     1
102
RTVSPropertyOp20
 70
     1
102
RTVSPropertyOp21
 70
     1
102
RTVSPropertyOp22
 70
     1
102
RTVSPropertyOp23
 70
     1
102
RTVSPropertyOp24
 70
     1
102
RTVSPropertyOp25
 70
     1
102
RTVSPropertyOp26
 70
     1
102
RTVSPropertyOp27
 70
     1
102
RTVSPropertyOp28
 70
     1
102
RTVSPropertyOp29
 70
     1
102
RTVSPropertyOp30
 70
     1
102
RTVSPropertyOp31
 70
     1
102
RTVSPropertyOp32
 70
     1
102
RTVSPropertyOp33
 70
     1
102
RTVSPropertyOp34
 70
     1
102
RTVSPropertyOp35
 70
     1
102
RTVSPropertyOp36
 70
     1
102
RTVSPropertyOp37
 70
     1
102
RTVSPropertyOp38
 70
     1
102
RTVSPropertyOp39
 70
     1
102
RTVSPropertyOp40
 70
     1
102
RTVSPropertyOp41
 70
     1
102
RTVSPropertyOp42
 70
     1
102
RTVSPropertyOp43
 70
     1
102
RTVSPropertyOp44
 70
     1
102
RTVSPropertyOp45
 70
     1
102
RTVSPropertyOp46
 70
     1
102
RTVSPropertyOp47
 70
     1
102
RTVSPropertyOp48
 70
     1
102
RTVSPropertyOp49
 70
     1
102
RTVSPropertyOp50
 70
     1
102
RTVSPropertyOp51
 70
     0
102
RTVSPropertyOp52
 70
     0
102
RTVSPropertyOp53
 70
     1
102
RTVSPropertyOp54
 70
     1
102
RTVSPropertyOp55
 70
     1
102
RTVSPropertyOp56
 70
     1
102
RTVSPropertyOp57
 70
     1
102
RTVSPropertyOp58
 70
     1
102
RTVSPropertyOp59
 70
     1
102
RTVSPropertyOp60
 70
     1
102
RTVSPropertyOp61
 70
     1
102
RTVSPropertyOp62
 70
     1
  0
XRECORD
  5
BC8F
102
{ACAD_REACTORS
330
BC8E
102
}
330
BC8E
100
AcDbXrecord
280
     1
102
RTVSPost2010Prop28
280
     0
102
RTVSPost2010PropOp28
 70
     1
102
RTVSPost2010Prop29
280
     1
102
RTVSPost2010PropOp29
 70
     1
102
RTVSPost2010Prop30
280
     1
102
RTVSPost2010PropOp30
 70
     1
102
RTVSPost2010Prop31
280
     0
102
RTVSPost2010PropOp31
 70
     1
102
RTVSPost2010Prop32
280
     0
102
RTVSPost2010PropOp32
 70
     1
102
RTVSPost2010Prop33
280
     0
102
RTVSPost2010PropOp33
 70
     1
102
RTVSPost2010Prop34
280
     0
102
RTVSPost2010PropOp34
 70
     1
102
RTVSPost2010Prop35
280
     0
102
RTVSPost2010PropOp35
 70
     1
102
RTVSPost2010Prop36
280
     0
102
RTVSPost2010PropOp36
 70
     1
102
RTVSPost2010Prop37
 90
       50
102
RTVSPost2010PropOp37
 70
     1
102
RTVSPost2010Prop38
140
0.0
102
RTVSPost2010PropOp38
 70
     1
102
RTVSPost2010Prop39
140
1.0
102
RTVSPost2010PropOp39
 70
     1
102
RTVSPost2010Prop40
 90
        0
102
RTVSPost2010PropOp40
 70
     1
102
RTVSPost2010Prop41ColorIndex
 90
       18
102
RTVSPost2010Prop41ColorRGB
 90
        0
102
RTVSPost2010PropOp41
 70
     1
102
RTVSPost2010Prop42
 90
       50
102
RTVSPost2010PropOp42
 70
     1
102
RTVSPost2010Prop43
 90
        3
102
RTVSPost2010PropOp43
 70
     1
102
RTVSPost2010Prop44ColorIndex
 90
        5
102
RTVSPost2010Prop44ColorRGB
 90
      255
102
RTVSPost2010PropOp44
 70
     1
102
RTVSPost2010Prop45
280
     0
102
RTVSPost2010PropOp45
 70
     1
102
RTVSPost2010Prop46
 90
       50
102
RTVSPost2010PropOp46
 70
     1
102
RTVSPost2010Prop47
 90
       50
102
RTVSPost2010PropOp47
 70
     1
102
RTVSPost2010Prop48
 90
       50
102
RTVSPost2010PropOp48
 70
     1
102
RTVSPost2010Prop49
280
     0
102
RTVSPost2010PropOp49
 70
     1
102
RTVSPost2010Prop50
 90
       50
102
RTVSPost2010PropOp50
 70
     1
102
RTVSPost2010Prop51ColorIndex
 90
      256
102
RTVSPost2010Prop51ColorRGB
 90
-16777216
102
RTVSPost2010PropOp51
 70
     0
102
RTVSPost2010Prop52
140
1.0
102
RTVSPost2010PropOp52
 70
     0
102
RTVSPost2010Prop53
 90
        2
102
RTVSPost2010PropOp53
 70
     1
102
RTVSPost2010Prop54
  1
strokes_ogs.tif
102
RTVSPost2010PropOp54
 70
     1
102
RTVSPost2010Prop55
280
     0
102
RTVSPost2010PropOp55
 70
     1
102
RTVSPost2010Prop56
140
1.0
102
RTVSPost2010PropOp56
 70
     1
102
RTVSPost2010Prop57
140
1.0
102
RTVSPost2010PropOp57
 70
     1
102
RTVSPropertyOp0
 70
     1
102
RTVSPropertyOp1
 70
     1
102
RTVSPropertyOp2
 70
     1
102
RTVSPropertyOp3
 70
     1
102
RTVSPropertyOp4
 70
     1
102
RTVSPropertyOp5
 70
     1
102
RTVSPropertyOp6
 70
     1
102
RTVSPropertyOp7
 70
     1
102
RTVSPropertyOp8
 70
     1
102
RTVSPropertyOp9
 70
     1
102
RTVSPropertyOp10
 70
     1
102
RTVSPropertyOp11
 70
     1
102
RTVSPropertyOp12
 70
     1
102
RTVSPropertyOp13
 70
     1
102
RTVSPropertyOp14
 70
     1
102
RTVSPropertyOp15
 70
     1
102
RTVSPropertyOp16
 70
     1
102
RTVSPropertyOp17
 70
     1
102
RTVSPropertyOp18
 70
     1
102
RTVSPropertyOp19
 70
     1
102
RTVSPropertyOp20
 70
     1
102
RTVSPropertyOp21
 70
     1
102
RTVSPropertyOp22
 70
     1
102
RTVSPropertyOp23
 70
     1
102
RTVSPropertyOp24
 70
     1
102
RTVSPropertyOp25
 70
     1
102
RTVSPropertyOp26
 70
     1
102
RTVSPropertyOp27
 70
     1
102
RTVSPropertyOp28
 70
     1
102
RTVSPropertyOp29
 70
     1
102
RTVSPropertyOp30
 70
     1
102
RTVSPropertyOp31
 70
     1
102
RTVSPropertyOp32
 70
     1
102
RTVSPropertyOp33
 70
     1
102
RTVSPropertyOp34
 70
     1
102
RTVSPropertyOp35
 70
     1
102
RTVSPropertyOp36
 70
     1
102
RTVSPropertyOp37
 70
     1
102
RTVSPropertyOp38
 70
     1
102
RTVSPropertyOp39
 70
     1
102
RTVSPropertyOp40
 70
     1
102
RTVSPropertyOp41
 70
     1
102
RTVSPropertyOp42
 70
     1
102
RTVSPropertyOp43
 70
     1
102
RTVSPropertyOp44
 70
     1
102
RTVSPropertyOp45
 70
     1
102
RTVSPropertyOp46
 70
     1
102
RTVSPropertyOp47
 70
     1
102
RTVSPropertyOp48
 70
     1
102
RTVSPropertyOp49
 70
     1
102
RTVSPropertyOp50
 70
     1
102
RTVSPropertyOp51
 70
     0
102
RTVSPropertyOp52
 70
     0
102
RTVSPropertyOp53
 70
     1
102
RTVSPropertyOp54
 70
     1
102
RTVSPropertyOp55
 70
     1
102
RTVSPropertyOp56
 70
     1
102
RTVSPropertyOp57
 70
     1
102
RTVSPropertyOp58
 70
     1
102
RTVSPropertyOp59
 70
     1
102
RTVSPropertyOp60
 70
     1
102
RTVSPropertyOp61
 70
     1
102
RTVSPropertyOp62
 70
     1
  0
XRECORD
  5
BC91
102
{ACAD_REACTORS
330
BC90
102
}
330
BC90
100
AcDbXrecord
280
     1
102
RTVSPost2010Prop28
280
     0
102
RTVSPost2010PropOp28
 70
     1
102
RTVSPost2010Prop29
280
     1
102
RTVSPost2010PropOp29
 70
     1
102
RTVSPost2010Prop30
280
     1
102
RTVSPost2010PropOp30
 70
     1
102
RTVSPost2010Prop31
280
     0
102
RTVSPost2010PropOp31
 70
     1
102
RTVSPost2010Prop32
280
     0
102
RTVSPost2010PropOp32
 70
     1
102
RTVSPost2010Prop33
280
     0
102
RTVSPost2010PropOp33
 70
     1
102
RTVSPost2010Prop34
280
     0
102
RTVSPost2010PropOp34
 70
     1
102
RTVSPost2010Prop35
280
     0
102
RTVSPost2010PropOp35
 70
     1
102
RTVSPost2010Prop36
280
     0
102
RTVSPost2010PropOp36
 70
     1
102
RTVSPost2010Prop37
 90
       50
102
RTVSPost2010PropOp37
 70
     1
102
RTVSPost2010Prop38
140
0.0
102
RTVSPost2010PropOp38
 70
     1
102
RTVSPost2010Prop39
140
1.0
102
RTVSPost2010PropOp39
 70
     1
102
RTVSPost2010Prop40
 90
        0
102
RTVSPost2010PropOp40
 70
     1
102
RTVSPost2010Prop41ColorIndex
 90
       18
102
RTVSPost2010Prop41ColorRGB
 90
        0
102
RTVSPost2010PropOp41
 70
     1
102
RTVSPost2010Prop42
 90
       50
102
RTVSPost2010PropOp42
 70
     1
102
RTVSPost2010Prop43
 90
        3
102
RTVSPost2010PropOp43
 70
     1
102
RTVSPost2010Prop44ColorIndex
 90
        5
102
RTVSPost2010Prop44ColorRGB
 90
      255
102
RTVSPost2010PropOp44
 70
     1
102
RTVSPost2010Prop45
280
     0
102
RTVSPost2010PropOp45
 70
     1
102
RTVSPost2010Prop46
 90
       50
102
RTVSPost2010PropOp46
 70
     1
102
RTVSPost2010Prop47
 90
       50
102
RTVSPost2010PropOp47
 70
     1
102
RTVSPost2010Prop48
 90
       50
102
RTVSPost2010PropOp48
 70
     1
102
RTVSPost2010Prop49
280
     0
102
RTVSPost2010PropOp49
 70
     1
102
RTVSPost2010Prop50
 90
       50
102
RTVSPost2010PropOp50
 70
     1
102
RTVSPost2010Prop51ColorIndex
 90
      256
102
RTVSPost2010Prop51ColorRGB
 90
-16777216
102
RTVSPost2010PropOp51
 70
     0
102
RTVSPost2010Prop52
140
1.0
102
RTVSPost2010PropOp52
 70
     0
102
RTVSPost2010Prop53
 90
        2
102
RTVSPost2010PropOp53
 70
     1
102
RTVSPost2010Prop54
  1
strokes_ogs.tif
102
RTVSPost2010PropOp54
 70
     1
102
RTVSPost2010Prop55
280
     0
102
RTVSPost2010PropOp55
 70
     1
102
RTVSPost2010Prop56
140
1.0
102
RTVSPost2010PropOp56
 70
     1
102
RTVSPost2010Prop57
140
1.0
102
RTVSPost2010PropOp57
 70
     1
102
RTVSPropertyOp0
 70
     1
102
RTVSPropertyOp1
 70
     1
102
RTVSPropertyOp2
 70
     1
102
RTVSPropertyOp3
 70
     1
102
RTVSPropertyOp4
 70
     1
102
RTVSPropertyOp5
 70
     1
102
RTVSPropertyOp6
 70
     1
102
RTVSPropertyOp7
 70
     1
102
RTVSPropertyOp8
 70
     1
102
RTVSPropertyOp9
 70
     1
102
RTVSPropertyOp10
 70
     1
102
RTVSPropertyOp11
 70
     1
102
RTVSPropertyOp12
 70
     1
102
RTVSPropertyOp13
 70
     1
102
RTVSPropertyOp14
 70
     1
102
RTVSPropertyOp15
 70
     1
102
RTVSPropertyOp16
 70
     1
102
RTVSPropertyOp17
 70
     1
102
RTVSPropertyOp18
 70
     1
102
RTVSPropertyOp19
 70
     1
102
RTVSPropertyOp20
 70
     1
102
RTVSPropertyOp21
 70
     1
102
RTVSPropertyOp22
 70
     1
102
RTVSPropertyOp23
 70
     1
102
RTVSPropertyOp24
 70
     1
102
RTVSPropertyOp25
 70
     1
102
RTVSPropertyOp26
 70
     1
102
RTVSPropertyOp27
 70
     1
102
RTVSPropertyOp28
 70
     1
102
RTVSPropertyOp29
 70
     1
102
RTVSPropertyOp30
 70
     1
102
RTVSPropertyOp31
 70
     1
102
RTVSPropertyOp32
 70
     1
102
RTVSPropertyOp33
 70
     1
102
RTVSPropertyOp34
 70
     1
102
RTVSPropertyOp35
 70
     1
102
RTVSPropertyOp36
 70
     1
102
RTVSPropertyOp37
 70
     1
102
RTVSPropertyOp38
 70
     1
102
RTVSPropertyOp39
 70
     1
102
RTVSPropertyOp40
 70
     1
102
RTVSPropertyOp41
 70
     1
102
RTVSPropertyOp42
 70
     1
102
RTVSPropertyOp43
 70
     1
102
RTVSPropertyOp44
 70
     1
102
RTVSPropertyOp45
 70
     1
102
RTVSPropertyOp46
 70
     1
102
RTVSPropertyOp47
 70
     1
102
RTVSPropertyOp48
 70
     1
102
RTVSPropertyOp49
 70
     1
102
RTVSPropertyOp50
 70
     1
102
RTVSPropertyOp51
 70
     0
102
RTVSPropertyOp52
 70
     0
102
RTVSPropertyOp53
 70
     1
102
RTVSPropertyOp54
 70
     1
102
RTVSPropertyOp55
 70
     1
102
RTVSPropertyOp56
 70
     1
102
RTVSPropertyOp57
 70
     1
102
RTVSPropertyOp58
 70
     1
102
RTVSPropertyOp59
 70
     1
102
RTVSPropertyOp60
 70
     1
102
RTVSPropertyOp61
 70
     1
102
RTVSPropertyOp62
 70
     1
  0
XRECORD
  5
BC93
102
{ACAD_REACTORS
330
BC92
102
}
330
BC92
100
AcDbXrecord
280
     1
102
RTVSPost2010Prop28
280
     0
102
RTVSPost2010PropOp28
 70
     1
102
RTVSPost2010Prop29
280
     1
102
RTVSPost2010PropOp29
 70
     1
102
RTVSPost2010Prop30
280
     1
102
RTVSPost2010PropOp30
 70
     1
102
RTVSPost2010Prop31
280
     0
102
RTVSPost2010PropOp31
 70
     1
102
RTVSPost2010Prop32
280
     0
102
RTVSPost2010PropOp32
 70
     1
102
RTVSPost2010Prop33
280
     0
102
RTVSPost2010PropOp33
 70
     1
102
RTVSPost2010Prop34
280
     0
102
RTVSPost2010PropOp34
 70
     1
102
RTVSPost2010Prop35
280
     0
102
RTVSPost2010PropOp35
 70
     1
102
RTVSPost2010Prop36
280
     0
102
RTVSPost2010PropOp36
 70
     1
102
RTVSPost2010Prop37
 90
       50
102
RTVSPost2010PropOp37
 70
     1
102
RTVSPost2010Prop38
140
0.0
102
RTVSPost2010PropOp38
 70
     1
102
RTVSPost2010Prop39
140
1.0
102
RTVSPost2010PropOp39
 70
     1
102
RTVSPost2010Prop40
 90
        0
102
RTVSPost2010PropOp40
 70
     1
102
RTVSPost2010Prop41ColorIndex
 90
       18
102
RTVSPost2010Prop41ColorRGB
 90
        0
102
RTVSPost2010PropOp41
 70
     1
102
RTVSPost2010Prop42
 90
       50
102
RTVSPost2010PropOp42
 70
     1
102
RTVSPost2010Prop43
 90
        3
102
RTVSPost2010PropOp43
 70
     1
102
RTVSPost2010Prop44ColorIndex
 90
        5
102
RTVSPost2010Prop44ColorRGB
 90
      255
102
RTVSPost2010PropOp44
 70
     1
102
RTVSPost2010Prop45
280
     0
102
RTVSPost2010PropOp45
 70
     1
102
RTVSPost2010Prop46
 90
       50
102
RTVSPost2010PropOp46
 70
     1
102
RTVSPost2010Prop47
 90
       50
102
RTVSPost2010PropOp47
 70
     1
102
RTVSPost2010Prop48
 90
       50
102
RTVSPost2010PropOp48
 70
     1
102
RTVSPost2010Prop49
280
     0
102
RTVSPost2010PropOp49
 70
     1
102
RTVSPost2010Prop50
 90
       50
102
RTVSPost2010PropOp50
 70
     1
102
RTVSPost2010Prop51ColorIndex
 90
      256
102
RTVSPost2010Prop51ColorRGB
 90
-16777216
102
RTVSPost2010PropOp51
 70
     0
102
RTVSPost2010Prop52
140
1.0
102
RTVSPost2010PropOp52
 70
     0
102
RTVSPost2010Prop53
 90
        2
102
RTVSPost2010PropOp53
 70
     1
102
RTVSPost2010Prop54
  1
strokes_ogs.tif
102
RTVSPost2010PropOp54
 70
     1
102
RTVSPost2010Prop55
280
     0
102
RTVSPost2010PropOp55
 70
     1
102
RTVSPost2010Prop56
140
1.0
102
RTVSPost2010PropOp56
 70
     1
102
RTVSPost2010Prop57
140
1.0
102
RTVSPost2010PropOp57
 70
     1
102
RTVSPropertyOp0
 70
     1
102
RTVSPropertyOp1
 70
     1
102
RTVSPropertyOp2
 70
     1
102
RTVSPropertyOp3
 70
     1
102
RTVSPropertyOp4
 70
     1
102
RTVSPropertyOp5
 70
     1
102
RTVSPropertyOp6
 70
     1
102
RTVSPropertyOp7
 70
     1
102
RTVSPropertyOp8
 70
     1
102
RTVSPropertyOp9
 70
     1
102
RTVSPropertyOp10
 70
     1
102
RTVSPropertyOp11
 70
     1
102
RTVSPropertyOp12
 70
     1
102
RTVSPropertyOp13
 70
     1
102
RTVSPropertyOp14
 70
     1
102
RTVSPropertyOp15
 70
     1
102
RTVSPropertyOp16
 70
     1
102
RTVSPropertyOp17
 70
     1
102
RTVSPropertyOp18
 70
     1
102
RTVSPropertyOp19
 70
     1
102
RTVSPropertyOp20
 70
     1
102
RTVSPropertyOp21
 70
     1
102
RTVSPropertyOp22
 70
     1
102
RTVSPropertyOp23
 70
     1
102
RTVSPropertyOp24
 70
     1
102
RTVSPropertyOp25
 70
     1
102
RTVSPropertyOp26
 70
     1
102
RTVSPropertyOp27
 70
     1
102
RTVSPropertyOp28
 70
     1
102
RTVSPropertyOp29
 70
     1
102
RTVSPropertyOp30
 70
     1
102
RTVSPropertyOp31
 70
     1
102
RTVSPropertyOp32
 70
     1
102
RTVSPropertyOp33
 70
     1
102
RTVSPropertyOp34
 70
     1
102
RTVSPropertyOp35
 70
     1
102
RTVSPropertyOp36
 70
     1
102
RTVSPropertyOp37
 70
     1
102
RTVSPropertyOp38
 70
     1
102
RTVSPropertyOp39
 70
     1
102
RTVSPropertyOp40
 70
     1
102
RTVSPropertyOp41
 70
     1
102
RTVSPropertyOp42
 70
     1
102
RTVSPropertyOp43
 70
     1
102
RTVSPropertyOp44
 70
     1
102
RTVSPropertyOp45
 70
     1
102
RTVSPropertyOp46
 70
     1
102
RTVSPropertyOp47
 70
     1
102
RTVSPropertyOp48
 70
     1
102
RTVSPropertyOp49
 70
     1
102
RTVSPropertyOp50
 70
     1
102
RTVSPropertyOp51
 70
     0
102
RTVSPropertyOp52
 70
     0
102
RTVSPropertyOp53
 70
     1
102
RTVSPropertyOp54
 70
     1
102
RTVSPropertyOp55
 70
     1
102
RTVSPropertyOp56
 70
     1
102
RTVSPropertyOp57
 70
     1
102
RTVSPropertyOp58
 70
     1
102
RTVSPropertyOp59
 70
     1
102
RTVSPropertyOp60
 70
     1
102
RTVSPropertyOp61
 70
     1
102
RTVSPropertyOp62
 70
     1
  0
XRECORD
  5
BC9B
102
{ACAD_REACTORS
330
BC9A
102
}
330
BC9A
100
AcDbXrecord
280
     1
102
RTVSPost2010Prop28
280
     0
102
RTVSPost2010PropOp28
 70
     1
102
RTVSPost2010Prop29
280
     1
102
RTVSPost2010PropOp29
 70
     1
102
RTVSPost2010Prop30
280
     1
102
RTVSPost2010PropOp30
 70
     1
102
RTVSPost2010Prop31
280
     0
102
RTVSPost2010PropOp31
 70
     1
102
RTVSPost2010Prop32
280
     0
102
RTVSPost2010PropOp32
 70
     1
102
RTVSPost2010Prop33
280
     0
102
RTVSPost2010PropOp33
 70
     1
102
RTVSPost2010Prop34
280
     0
102
RTVSPost2010PropOp34
 70
     1
102
RTVSPost2010Prop35
280
     0
102
RTVSPost2010PropOp35
 70
     1
102
RTVSPost2010Prop36
280
     0
102
RTVSPost2010PropOp36
 70
     1
102
RTVSPost2010Prop37
 90
       50
102
RTVSPost2010PropOp37
 70
     1
102
RTVSPost2010Prop38
140
0.0
102
RTVSPost2010PropOp38
 70
     1
102
RTVSPost2010Prop39
140
1.0
102
RTVSPost2010PropOp39
 70
     1
102
RTVSPost2010Prop40
 90
        0
102
RTVSPost2010PropOp40
 70
     1
102
RTVSPost2010Prop41ColorIndex
 90
       18
102
RTVSPost2010Prop41ColorRGB
 90
        0
102
RTVSPost2010PropOp41
 70
     1
102
RTVSPost2010Prop42
 90
       50
102
RTVSPost2010PropOp42
 70
     1
102
RTVSPost2010Prop43
 90
        3
102
RTVSPost2010PropOp43
 70
     1
102
RTVSPost2010Prop44ColorIndex
 90
        5
102
RTVSPost2010Prop44ColorRGB
 90
      255
102
RTVSPost2010PropOp44
 70
     1
102
RTVSPost2010Prop45
280
     0
102
RTVSPost2010PropOp45
 70
     1
102
RTVSPost2010Prop46
 90
       50
102
RTVSPost2010PropOp46
 70
     1
102
RTVSPost2010Prop47
 90
       50
102
RTVSPost2010PropOp47
 70
     1
102
RTVSPost2010Prop48
 90
       50
102
RTVSPost2010PropOp48
 70
     1
102
RTVSPost2010Prop49
280
     0
102
RTVSPost2010PropOp49
 70
     1
102
RTVSPost2010Prop50
 90
       50
102
RTVSPost2010PropOp50
 70
     1
102
RTVSPost2010Prop51ColorIndex
 90
      256
102
RTVSPost2010Prop51ColorRGB
 90
-16777216
102
RTVSPost2010PropOp51
 70
     0
102
RTVSPost2010Prop52
140
1.0
102
RTVSPost2010PropOp52
 70
     0
102
RTVSPost2010Prop53
 90
        2
102
RTVSPost2010PropOp53
 70
     1
102
RTVSPost2010Prop54
  1
strokes_ogs.tif
102
RTVSPost2010PropOp54
 70
     1
102
RTVSPost2010Prop55
280
     0
102
RTVSPost2010PropOp55
 70
     1
102
RTVSPost2010Prop56
140
1.0
102
RTVSPost2010PropOp56
 70
     1
102
RTVSPost2010Prop57
140
1.0
102
RTVSPost2010PropOp57
 70
     1
102
RTVSPropertyOp0
 70
     1
102
RTVSPropertyOp1
 70
     1
102
RTVSPropertyOp2
 70
     1
102
RTVSPropertyOp3
 70
     1
102
RTVSPropertyOp4
 70
     1
102
RTVSPropertyOp5
 70
     1
102
RTVSPropertyOp6
 70
     1
102
RTVSPropertyOp7
 70
     1
102
RTVSPropertyOp8
 70
     1
102
RTVSPropertyOp9
 70
     1
102
RTVSPropertyOp10
 70
     1
102
RTVSPropertyOp11
 70
     1
102
RTVSPropertyOp12
 70
     1
102
RTVSPropertyOp13
 70
     1
102
RTVSPropertyOp14
 70
     1
102
RTVSPropertyOp15
 70
     1
102
RTVSPropertyOp16
 70
     1
102
RTVSPropertyOp17
 70
     1
102
RTVSPropertyOp18
 70
     1
102
RTVSPropertyOp19
 70
     1
102
RTVSPropertyOp20
 70
     1
102
RTVSPropertyOp21
 70
     1
102
RTVSPropertyOp22
 70
     1
102
RTVSPropertyOp23
 70
     1
102
RTVSPropertyOp24
 70
     1
102
RTVSPropertyOp25
 70
     1
102
RTVSPropertyOp26
 70
     1
102
RTVSPropertyOp27
 70
     1
102
RTVSPropertyOp28
 70
     1
102
RTVSPropertyOp29
 70
     1
102
RTVSPropertyOp30
 70
     1
102
RTVSPropertyOp31
 70
     1
102
RTVSPropertyOp32
 70
     1
102
RTVSPropertyOp33
 70
     1
102
RTVSPropertyOp34
 70
     1
102
RTVSPropertyOp35
 70
     1
102
RTVSPropertyOp36
 70
     1
102
RTVSPropertyOp37
 70
     1
102
RTVSPropertyOp38
 70
     1
102
RTVSPropertyOp39
 70
     1
102
RTVSPropertyOp40
 70
     1
102
RTVSPropertyOp41
 70
     1
102
RTVSPropertyOp42
 70
     1
102
RTVSPropertyOp43
 70
     1
102
RTVSPropertyOp44
 70
     1
102
RTVSPropertyOp45
 70
     1
102
RTVSPropertyOp46
 70
     1
102
RTVSPropertyOp47
 70
     1
102
RTVSPropertyOp48
 70
     1
102
RTVSPropertyOp49
 70
     1
102
RTVSPropertyOp50
 70
     1
102
RTVSPropertyOp51
 70
     0
102
RTVSPropertyOp52
 70
     0
102
RTVSPropertyOp53
 70
     1
102
RTVSPropertyOp54
 70
     1
102
RTVSPropertyOp55
 70
     1
102
RTVSPropertyOp56
 70
     1
102
RTVSPropertyOp57
 70
     1
102
RTVSPropertyOp58
 70
     1
102
RTVSPropertyOp59
 70
     1
102
RTVSPropertyOp60
 70
     1
102
RTVSPropertyOp61
 70
     1
102
RTVSPropertyOp62
 70
     1
  0
XRECORD
  5
BCAF
102
{ACAD_REACTORS
330
BCAE
102
}
330
BCAE
100
AcDbXrecord
280
     1
102
RTVSPost2010Prop28
280
     0
102
RTVSPost2010PropOp28
 70
     1
102
RTVSPost2010Prop29
280
     1
102
RTVSPost2010PropOp29
 70
     1
102
RTVSPost2010Prop30
280
     1
102
RTVSPost2010PropOp30
 70
     1
102
RTVSPost2010Prop31
280
     0
102
RTVSPost2010PropOp31
 70
     1
102
RTVSPost2010Prop32
280
     0
102
RTVSPost2010PropOp32
 70
     1
102
RTVSPost2010Prop33
280
     0
102
RTVSPost2010PropOp33
 70
     1
102
RTVSPost2010Prop34
280
     0
102
RTVSPost2010PropOp34
 70
     1
102
RTVSPost2010Prop35
280
     0
102
RTVSPost2010PropOp35
 70
     1
102
RTVSPost2010Prop36
280
     0
102
RTVSPost2010PropOp36
 70
     1
102
RTVSPost2010Prop37
 90
       50
102
RTVSPost2010PropOp37
 70
     1
102
RTVSPost2010Prop38
140
0.0
102
RTVSPost2010PropOp38
 70
     1
102
RTVSPost2010Prop39
140
1.0
102
RTVSPost2010PropOp39
 70
     1
102
RTVSPost2010Prop40
 90
        0
102
RTVSPost2010PropOp40
 70
     1
102
RTVSPost2010Prop41ColorIndex
 90
       18
102
RTVSPost2010Prop41ColorRGB
 90
        0
102
RTVSPost2010PropOp41
 70
     1
102
RTVSPost2010Prop42
 90
       50
102
RTVSPost2010PropOp42
 70
     1
102
RTVSPost2010Prop43
 90
        3
102
RTVSPost2010PropOp43
 70
     1
102
RTVSPost2010Prop44ColorIndex
 90
        5
102
RTVSPost2010Prop44ColorRGB
 90
      255
102
RTVSPost2010PropOp44
 70
     1
102
RTVSPost2010Prop45
280
     0
102
RTVSPost2010PropOp45
 70
     1
102
RTVSPost2010Prop46
 90
       50
102
RTVSPost2010PropOp46
 70
     1
102
RTVSPost2010Prop47
 90
       50
102
RTVSPost2010PropOp47
 70
     1
102
RTVSPost2010Prop48
 90
       50
102
RTVSPost2010PropOp48
 70
     1
102
RTVSPost2010Prop49
280
     0
102
RTVSPost2010PropOp49
 70
     1
102
RTVSPost2010Prop50
 90
       50
102
RTVSPost2010PropOp50
 70
     1
102
RTVSPost2010Prop51ColorIndex
 90
      256
102
RTVSPost2010Prop51ColorRGB
 90
-16777216
102
RTVSPost2010PropOp51
 70
     0
102
RTVSPost2010Prop52
140
1.0
102
RTVSPost2010PropOp52
 70
     0
102
RTVSPost2010Prop53
 90
        2
102
RTVSPost2010PropOp53
 70
     1
102
RTVSPost2010Prop54
  1
strokes_ogs.tif
102
RTVSPost2010PropOp54
 70
     1
102
RTVSPost2010Prop55
280
     0
102
RTVSPost2010PropOp55
 70
     1
102
RTVSPost2010Prop56
140
1.0
102
RTVSPost2010PropOp56
 70
     1
102
RTVSPost2010Prop57
140
1.0
102
RTVSPost2010PropOp57
 70
     1
102
RTVSPropertyOp0
 70
     0
102
RTVSPropertyOp1
 70
     0
102
RTVSPropertyOp2
 70
     0
102
RTVSPropertyOp3
 70
     0
102
RTVSPropertyOp4
 70
     0
102
RTVSPropertyOp5
 70
     0
102
RTVSPropertyOp6
 70
     0
102
RTVSPropertyOp7
 70
     0
102
RTVSPropertyOp8
 70
     0
102
RTVSPropertyOp9
 70
     0
102
RTVSPropertyOp10
 70
     0
102
RTVSPropertyOp11
 70
     0
102
RTVSPropertyOp12
 70
     0
102
RTVSPropertyOp13
 70
     0
102
RTVSPropertyOp14
 70
     2
102
RTVSPropertyOp15
 70
     0
102
RTVSPropertyOp16
 70
     0
102
RTVSPropertyOp17
 70
     0
102
RTVSPropertyOp18
 70
     0
102
RTVSPropertyOp19
 70
     0
102
RTVSPropertyOp20
 70
     0
102
RTVSPropertyOp21
 70
     0
102
RTVSPropertyOp22
 70
     0
102
RTVSPropertyOp23
 70
     0
102
RTVSPropertyOp24
 70
     0
102
RTVSPropertyOp25
 70
     0
102
RTVSPropertyOp26
 70
     0
102
RTVSPropertyOp27
 70
     0
102
RTVSPropertyOp28
 70
     1
102
RTVSPropertyOp29
 70
     1
102
RTVSPropertyOp30
 70
     1
102
RTVSPropertyOp31
 70
     1
102
RTVSPropertyOp32
 70
     1
102
RTVSPropertyOp33
 70
     1
102
RTVSPropertyOp34
 70
     1
102
RTVSPropertyOp35
 70
     1
102
RTVSPropertyOp36
 70
     1
102
RTVSPropertyOp37
 70
     1
102
RTVSPropertyOp38
 70
     1
102
RTVSPropertyOp39
 70
     1
102
RTVSPropertyOp40
 70
     1
102
RTVSPropertyOp41
 70
     1
102
RTVSPropertyOp42
 70
     1
102
RTVSPropertyOp43
 70
     1
102
RTVSPropertyOp44
 70
     1
102
RTVSPropertyOp45
 70
     1
102
RTVSPropertyOp46
 70
     1
102
RTVSPropertyOp47
 70
     1
102
RTVSPropertyOp48
 70
     1
102
RTVSPropertyOp49
 70
     1
102
RTVSPropertyOp50
 70
     1
102
RTVSPropertyOp51
 70
     0
102
RTVSPropertyOp52
 70
     0
102
RTVSPropertyOp53
 70
     1
102
RTVSPropertyOp54
 70
     1
102
RTVSPropertyOp55
 70
     1
102
RTVSPropertyOp56
 70
     1
102
RTVSPropertyOp57
 70
     1
102
RTVSPropertyOp58
 70
     1
102
RTVSPropertyOp59
 70
     1
102
RTVSPropertyOp60
 70
     1
102
RTVSPropertyOp61
 70
     1
102
RTVSPropertyOp62
 70
     1
  0
XRECORD
  5
BCA7
102
{ACAD_REACTORS
330
BCA6
102
}
330
BCA6
100
AcDbXrecord
280
     1
102
RTVSPost2010Prop28
280
     0
102
RTVSPost2010PropOp28
 70
     1
102
RTVSPost2010Prop29
280
     1
102
RTVSPost2010PropOp29
 70
     1
102
RTVSPost2010Prop30
280
     1
102
RTVSPost2010PropOp30
 70
     1
102
RTVSPost2010Prop31
280
     0
102
RTVSPost2010PropOp31
 70
     1
102
RTVSPost2010Prop32
280
     0
102
RTVSPost2010PropOp32
 70
     1
102
RTVSPost2010Prop33
280
     0
102
RTVSPost2010PropOp33
 70
     1
102
RTVSPost2010Prop34
280
     0
102
RTVSPost2010PropOp34
 70
     1
102
RTVSPost2010Prop35
280
     0
102
RTVSPost2010PropOp35
 70
     1
102
RTVSPost2010Prop36
280
     0
102
RTVSPost2010PropOp36
 70
     1
102
RTVSPost2010Prop37
 90
       50
102
RTVSPost2010PropOp37
 70
     1
102
RTVSPost2010Prop38
140
0.0
102
RTVSPost2010PropOp38
 70
     1
102
RTVSPost2010Prop39
140
1.0
102
RTVSPost2010PropOp39
 70
     1
102
RTVSPost2010Prop40
 90
        0
102
RTVSPost2010PropOp40
 70
     1
102
RTVSPost2010Prop41ColorIndex
 90
       18
102
RTVSPost2010Prop41ColorRGB
 90
        0
102
RTVSPost2010PropOp41
 70
     1
102
RTVSPost2010Prop42
 90
       50
102
RTVSPost2010PropOp42
 70
     1
102
RTVSPost2010Prop43
 90
        3
102
RTVSPost2010PropOp43
 70
     1
102
RTVSPost2010Prop44ColorIndex
 90
        5
102
RTVSPost2010Prop44ColorRGB
 90
      255
102
RTVSPost2010PropOp44
 70
     1
102
RTVSPost2010Prop45
280
     0
102
RTVSPost2010PropOp45
 70
     1
102
RTVSPost2010Prop46
 90
       50
102
RTVSPost2010PropOp46
 70
     1
102
RTVSPost2010Prop47
 90
       50
102
RTVSPost2010PropOp47
 70
     1
102
RTVSPost2010Prop48
 90
       50
102
RTVSPost2010PropOp48
 70
     1
102
RTVSPost2010Prop49
280
     0
102
RTVSPost2010PropOp49
 70
     1
102
RTVSPost2010Prop50
 90
       50
102
RTVSPost2010PropOp50
 70
     1
102
RTVSPost2010Prop51ColorIndex
 90
      256
102
RTVSPost2010Prop51ColorRGB
 90
-16777216
102
RTVSPost2010PropOp51
 70
     0
102
RTVSPost2010Prop52
140
1.0
102
RTVSPost2010PropOp52
 70
     0
102
RTVSPost2010Prop53
 90
        2
102
RTVSPost2010PropOp53
 70
     1
102
RTVSPost2010Prop54
  1
strokes_ogs.tif
102
RTVSPost2010PropOp54
 70
     1
102
RTVSPost2010Prop55
280
     0
102
RTVSPost2010PropOp55
 70
     1
102
RTVSPost2010Prop56
140
1.0
102
RTVSPost2010PropOp56
 70
     1
102
RTVSPost2010Prop57
140
1.0
102
RTVSPost2010PropOp57
 70
     1
102
RTVSPropertyOp0
 70
     1
102
RTVSPropertyOp1
 70
     1
102
RTVSPropertyOp2
 70
     1
102
RTVSPropertyOp3
 70
     1
102
RTVSPropertyOp4
 70
     1
102
RTVSPropertyOp5
 70
     1
102
RTVSPropertyOp6
 70
     1
102
RTVSPropertyOp7
 70
     1
102
RTVSPropertyOp8
 70
     1
102
RTVSPropertyOp9
 70
     1
102
RTVSPropertyOp10
 70
     1
102
RTVSPropertyOp11
 70
     1
102
RTVSPropertyOp12
 70
     1
102
RTVSPropertyOp13
 70
     1
102
RTVSPropertyOp14
 70
     1
102
RTVSPropertyOp15
 70
     1
102
RTVSPropertyOp16
 70
     1
102
RTVSPropertyOp17
 70
     1
102
RTVSPropertyOp18
 70
     1
102
RTVSPropertyOp19
 70
     1
102
RTVSPropertyOp20
 70
     1
102
RTVSPropertyOp21
 70
     1
102
RTVSPropertyOp22
 70
     1
102
RTVSPropertyOp23
 70
     1
102
RTVSPropertyOp24
 70
     1
102
RTVSPropertyOp25
 70
     1
102
RTVSPropertyOp26
 70
     1
102
RTVSPropertyOp27
 70
     1
102
RTVSPropertyOp28
 70
     1
102
RTVSPropertyOp29
 70
     1
102
RTVSPropertyOp30
 70
     1
102
RTVSPropertyOp31
 70
     1
102
RTVSPropertyOp32
 70
     1
102
RTVSPropertyOp33
 70
     1
102
RTVSPropertyOp34
 70
     1
102
RTVSPropertyOp35
 70
     1
102
RTVSPropertyOp36
 70
     1
102
RTVSPropertyOp37
 70
     1
102
RTVSPropertyOp38
 70
     1
102
RTVSPropertyOp39
 70
     1
102
RTVSPropertyOp40
 70
     1
102
RTVSPropertyOp41
 70
     1
102
RTVSPropertyOp42
 70
     1
102
RTVSPropertyOp43
 70
     1
102
RTVSPropertyOp44
 70
     1
102
RTVSPropertyOp45
 70
     1
102
RTVSPropertyOp46
 70
     1
102
RTVSPropertyOp47
 70
     1
102
RTVSPropertyOp48
 70
     1
102
RTVSPropertyOp49
 70
     1
102
RTVSPropertyOp50
 70
     1
102
RTVSPropertyOp51
 70
     0
102
RTVSPropertyOp52
 70
     0
102
RTVSPropertyOp53
 70
     1
102
RTVSPropertyOp54
 70
     1
102
RTVSPropertyOp55
 70
     1
102
RTVSPropertyOp56
 70
     1
102
RTVSPropertyOp57
 70
     1
102
RTVSPropertyOp58
 70
     1
102
RTVSPropertyOp59
 70
     1
102
RTVSPropertyOp60
 70
     1
102
RTVSPropertyOp61
 70
     1
102
RTVSPropertyOp62
 70
     1
  0
XRECORD
  5
BCB1
102
{ACAD_REACTORS
330
BCB0
102
}
330
BCB0
100
AcDbXrecord
280
     1
102
RTVSPost2010Prop28
280
     0
102
RTVSPost2010PropOp28
 70
     1
102
RTVSPost2010Prop29
280
     1
102
RTVSPost2010PropOp29
 70
     1
102
RTVSPost2010Prop30
280
     1
102
RTVSPost2010PropOp30
 70
     1
102
RTVSPost2010Prop31
280
     0
102
RTVSPost2010PropOp31
 70
     1
102
RTVSPost2010Prop32
280
     0
102
RTVSPost2010PropOp32
 70
     1
102
RTVSPost2010Prop33
280
     0
102
RTVSPost2010PropOp33
 70
     1
102
RTVSPost2010Prop34
280
     0
102
RTVSPost2010PropOp34
 70
     1
102
RTVSPost2010Prop35
280
     0
102
RTVSPost2010PropOp35
 70
     1
102
RTVSPost2010Prop36
280
     0
102
RTVSPost2010PropOp36
 70
     1
102
RTVSPost2010Prop37
 90
       50
102
RTVSPost2010PropOp37
 70
     1
102
RTVSPost2010Prop38
140
0.0
102
RTVSPost2010PropOp38
 70
     1
102
RTVSPost2010Prop39
140
1.0
102
RTVSPost2010PropOp39
 70
     1
102
RTVSPost2010Prop40
 90
        0
102
RTVSPost2010PropOp40
 70
     1
102
RTVSPost2010Prop41ColorIndex
 90
       18
102
RTVSPost2010Prop41ColorRGB
 90
        0
102
RTVSPost2010PropOp41
 70
     1
102
RTVSPost2010Prop42
 90
       50
102
RTVSPost2010PropOp42
 70
     1
102
RTVSPost2010Prop43
 90
        3
102
RTVSPost2010PropOp43
 70
     1
102
RTVSPost2010Prop44ColorIndex
 90
        5
102
RTVSPost2010Prop44ColorRGB
 90
      255
102
RTVSPost2010PropOp44
 70
     1
102
RTVSPost2010Prop45
280
     0
102
RTVSPost2010PropOp45
 70
     1
102
RTVSPost2010Prop46
 90
       50
102
RTVSPost2010PropOp46
 70
     1
102
RTVSPost2010Prop47
 90
       50
102
RTVSPost2010PropOp47
 70
     1
102
RTVSPost2010Prop48
 90
       50
102
RTVSPost2010PropOp48
 70
     1
102
RTVSPost2010Prop49
280
     0
102
RTVSPost2010PropOp49
 70
     1
102
RTVSPost2010Prop50
 90
       50
102
RTVSPost2010PropOp50
 70
     1
102
RTVSPost2010Prop51ColorIndex
 90
      256
102
RTVSPost2010Prop51ColorRGB
 90
-16777216
102
RTVSPost2010PropOp51
 70
     0
102
RTVSPost2010Prop52
140
1.0
102
RTVSPost2010PropOp52
 70
     0
102
RTVSPost2010Prop53
 90
        2
102
RTVSPost2010PropOp53
 70
     1
102
RTVSPost2010Prop54
  1
strokes_ogs.tif
102
RTVSPost2010PropOp54
 70
     1
102
RTVSPost2010Prop55
280
     0
102
RTVSPost2010PropOp55
 70
     1
102
RTVSPost2010Prop56
140
1.0
102
RTVSPost2010PropOp56
 70
     1
102
RTVSPost2010Prop57
140
1.0
102
RTVSPost2010PropOp57
 70
     1
102
RTVSPropertyOp0
 70
     0
102
RTVSPropertyOp1
 70
     0
102
RTVSPropertyOp2
 70
     0
102
RTVSPropertyOp3
 70
     0
102
RTVSPropertyOp4
 70
     0
102
RTVSPropertyOp5
 70
     0
102
RTVSPropertyOp6
 70
     0
102
RTVSPropertyOp7
 70
     0
102
RTVSPropertyOp8
 70
     0
102
RTVSPropertyOp9
 70
     0
102
RTVSPropertyOp10
 70
     0
102
RTVSPropertyOp11
 70
     0
102
RTVSPropertyOp12
 70
     0
102
RTVSPropertyOp13
 70
     0
102
RTVSPropertyOp14
 70
     2
102
RTVSPropertyOp15
 70
     0
102
RTVSPropertyOp16
 70
     0
102
RTVSPropertyOp17
 70
     0
102
RTVSPropertyOp18
 70
     0
102
RTVSPropertyOp19
 70
     0
102
RTVSPropertyOp20
 70
     0
102
RTVSPropertyOp21
 70
     0
102
RTVSPropertyOp22
 70
     0
102
RTVSPropertyOp23
 70
     0
102
RTVSPropertyOp24
 70
     0
102
RTVSPropertyOp25
 70
     0
102
RTVSPropertyOp26
 70
     0
102
RTVSPropertyOp27
 70
     0
102
RTVSPropertyOp28
 70
     1
102
RTVSPropertyOp29
 70
     1
102
RTVSPropertyOp30
 70
     1
102
RTVSPropertyOp31
 70
     1
102
RTVSPropertyOp32
 70
     1
102
RTVSPropertyOp33
 70
     1
102
RTVSPropertyOp34
 70
     1
102
RTVSPropertyOp35
 70
     1
102
RTVSPropertyOp36
 70
     1
102
RTVSPropertyOp37
 70
     1
102
RTVSPropertyOp38
 70
     1
102
RTVSPropertyOp39
 70
     1
102
RTVSPropertyOp40
 70
     1
102
RTVSPropertyOp41
 70
     1
102
RTVSPropertyOp42
 70
     1
102
RTVSPropertyOp43
 70
     1
102
RTVSPropertyOp44
 70
     1
102
RTVSPropertyOp45
 70
     1
102
RTVSPropertyOp46
 70
     1
102
RTVSPropertyOp47
 70
     1
102
RTVSPropertyOp48
 70
     1
102
RTVSPropertyOp49
 70
     1
102
RTVSPropertyOp50
 70
     1
102
RTVSPropertyOp51
 70
     0
102
RTVSPropertyOp52
 70
     0
102
RTVSPropertyOp53
 70
     1
102
RTVSPropertyOp54
 70
     1
102
RTVSPropertyOp55
 70
     1
102
RTVSPropertyOp56
 70
     1
102
RTVSPropertyOp57
 70
     1
102
RTVSPropertyOp58
 70
     1
102
RTVSPropertyOp59
 70
     1
102
RTVSPropertyOp60
 70
     1
102
RTVSPropertyOp61
 70
     1
102
RTVSPropertyOp62
 70
     1
  0
XRECORD
  5
BC9F
102
{ACAD_REACTORS
330
BC9E
102
}
330
BC9E
100
AcDbXrecord
280
     1
102
RTVSPost2010Prop28
280
     0
102
RTVSPost2010PropOp28
 70
     1
102
RTVSPost2010Prop29
280
     1
102
RTVSPost2010PropOp29
 70
     1
102
RTVSPost2010Prop30
280
     1
102
RTVSPost2010PropOp30
 70
     1
102
RTVSPost2010Prop31
280
     0
102
RTVSPost2010PropOp31
 70
     1
102
RTVSPost2010Prop32
280
     0
102
RTVSPost2010PropOp32
 70
     1
102
RTVSPost2010Prop33
280
     0
102
RTVSPost2010PropOp33
 70
     1
102
RTVSPost2010Prop34
280
     0
102
RTVSPost2010PropOp34
 70
     1
102
RTVSPost2010Prop35
280
     0
102
RTVSPost2010PropOp35
 70
     1
102
RTVSPost2010Prop36
280
     0
102
RTVSPost2010PropOp36
 70
     1
102
RTVSPost2010Prop37
 90
       50
102
RTVSPost2010PropOp37
 70
     1
102
RTVSPost2010Prop38
140
0.0
102
RTVSPost2010PropOp38
 70
     1
102
RTVSPost2010Prop39
140
1.0
102
RTVSPost2010PropOp39
 70
     1
102
RTVSPost2010Prop40
 90
        0
102
RTVSPost2010PropOp40
 70
     1
102
RTVSPost2010Prop41ColorIndex
 90
       18
102
RTVSPost2010Prop41ColorRGB
 90
        0
102
RTVSPost2010PropOp41
 70
     1
102
RTVSPost2010Prop42
 90
       50
102
RTVSPost2010PropOp42
 70
     1
102
RTVSPost2010Prop43
 90
        3
102
RTVSPost2010PropOp43
 70
     1
102
RTVSPost2010Prop44ColorIndex
 90
        5
102
RTVSPost2010Prop44ColorRGB
 90
      255
102
RTVSPost2010PropOp44
 70
     1
102
RTVSPost2010Prop45
280
     0
102
RTVSPost2010PropOp45
 70
     1
102
RTVSPost2010Prop46
 90
       50
102
RTVSPost2010PropOp46
 70
     1
102
RTVSPost2010Prop47
 90
       50
102
RTVSPost2010PropOp47
 70
     1
102
RTVSPost2010Prop48
 90
       50
102
RTVSPost2010PropOp48
 70
     1
102
RTVSPost2010Prop49
280
     0
102
RTVSPost2010PropOp49
 70
     1
102
RTVSPost2010Prop50
 90
       50
102
RTVSPost2010PropOp50
 70
     1
102
RTVSPost2010Prop51ColorIndex
 90
      256
102
RTVSPost2010Prop51ColorRGB
 90
-16777216
102
RTVSPost2010PropOp51
 70
     0
102
RTVSPost2010Prop52
140
1.0
102
RTVSPost2010PropOp52
 70
     0
102
RTVSPost2010Prop53
 90
        2
102
RTVSPost2010PropOp53
 70
     1
102
RTVSPost2010Prop54
  1
strokes_ogs.tif
102
RTVSPost2010PropOp54
 70
     1
102
RTVSPost2010Prop55
280
     0
102
RTVSPost2010PropOp55
 70
     1
102
RTVSPost2010Prop56
140
1.0
102
RTVSPost2010PropOp56
 70
     1
102
RTVSPost2010Prop57
140
1.0
102
RTVSPost2010PropOp57
 70
     1
102
RTVSPropertyOp0
 70
     1
102
RTVSPropertyOp1
 70
     1
102
RTVSPropertyOp2
 70
     1
102
RTVSPropertyOp3
 70
     1
102
RTVSPropertyOp4
 70
     1
102
RTVSPropertyOp5
 70
     1
102
RTVSPropertyOp6
 70
     1
102
RTVSPropertyOp7
 70
     1
102
RTVSPropertyOp8
 70
     1
102
RTVSPropertyOp9
 70
     1
102
RTVSPropertyOp10
 70
     1
102
RTVSPropertyOp11
 70
     1
102
RTVSPropertyOp12
 70
     1
102
RTVSPropertyOp13
 70
     1
102
RTVSPropertyOp14
 70
     1
102
RTVSPropertyOp15
 70
     1
102
RTVSPropertyOp16
 70
     1
102
RTVSPropertyOp17
 70
     1
102
RTVSPropertyOp18
 70
     1
102
RTVSPropertyOp19
 70
     1
102
RTVSPropertyOp20
 70
     1
102
RTVSPropertyOp21
 70
     1
102
RTVSPropertyOp22
 70
     1
102
RTVSPropertyOp23
 70
     1
102
RTVSPropertyOp24
 70
     1
102
RTVSPropertyOp25
 70
     1
102
RTVSPropertyOp26
 70
     1
102
RTVSPropertyOp27
 70
     1
102
RTVSPropertyOp28
 70
     1
102
RTVSPropertyOp29
 70
     1
102
RTVSPropertyOp30
 70
     1
102
RTVSPropertyOp31
 70
     1
102
RTVSPropertyOp32
 70
     1
102
RTVSPropertyOp33
 70
     1
102
RTVSPropertyOp34
 70
     1
102
RTVSPropertyOp35
 70
     1
102
RTVSPropertyOp36
 70
     1
102
RTVSPropertyOp37
 70
     1
102
RTVSPropertyOp38
 70
     1
102
RTVSPropertyOp39
 70
     1
102
RTVSPropertyOp40
 70
     1
102
RTVSPropertyOp41
 70
     1
102
RTVSPropertyOp42
 70
     1
102
RTVSPropertyOp43
 70
     1
102
RTVSPropertyOp44
 70
     1
102
RTVSPropertyOp45
 70
     1
102
RTVSPropertyOp46
 70
     1
102
RTVSPropertyOp47
 70
     1
102
RTVSPropertyOp48
 70
     1
102
RTVSPropertyOp49
 70
     1
102
RTVSPropertyOp50
 70
     1
102
RTVSPropertyOp51
 70
     0
102
RTVSPropertyOp52
 70
     0
102
RTVSPropertyOp53
 70
     1
102
RTVSPropertyOp54
 70
     1
102
RTVSPropertyOp55
 70
     1
102
RTVSPropertyOp56
 70
     1
102
RTVSPropertyOp57
 70
     1
102
RTVSPropertyOp58
 70
     1
102
RTVSPropertyOp59
 70
     1
102
RTVSPropertyOp60
 70
     1
102
RTVSPropertyOp61
 70
     1
102
RTVSPropertyOp62
 70
     1
  0
XRECORD
  5
BCBD
102
{ACAD_REACTORS
330
BCBC
102
}
330
BCBC
100
AcDbXrecord
280
     1
102
RTVSPost2010Prop28
280
     0
102
RTVSPost2010PropOp28
 70
     1
102
RTVSPost2010Prop29
280
     1
102
RTVSPost2010PropOp29
 70
     1
102
RTVSPost2010Prop30
280
     1
102
RTVSPost2010PropOp30
 70
     1
102
RTVSPost2010Prop31
280
     0
102
RTVSPost2010PropOp31
 70
     1
102
RTVSPost2010Prop32
280
     0
102
RTVSPost2010PropOp32
 70
     1
102
RTVSPost2010Prop33
280
     0
102
RTVSPost2010PropOp33
 70
     1
102
RTVSPost2010Prop34
280
     0
102
RTVSPost2010PropOp34
 70
     1
102
RTVSPost2010Prop35
280
     0
102
RTVSPost2010PropOp35
 70
     1
102
RTVSPost2010Prop36
280
     0
102
RTVSPost2010PropOp36
 70
     1
102
RTVSPost2010Prop37
 90
       50
102
RTVSPost2010PropOp37
 70
     1
102
RTVSPost2010Prop38
140
0.0
102
RTVSPost2010PropOp38
 70
     1
102
RTVSPost2010Prop39
140
1.0
102
RTVSPost2010PropOp39
 70
     1
102
RTVSPost2010Prop40
 90
        0
102
RTVSPost2010PropOp40
 70
     1
102
RTVSPost2010Prop41ColorIndex
 90
       18
102
RTVSPost2010Prop41ColorRGB
 90
        0
102
RTVSPost2010PropOp41
 70
     1
102
RTVSPost2010Prop42
 90
       50
102
RTVSPost2010PropOp42
 70
     1
102
RTVSPost2010Prop43
 90
        3
102
RTVSPost2010PropOp43
 70
     1
102
RTVSPost2010Prop44ColorIndex
 90
        5
102
RTVSPost2010Prop44ColorRGB
 90
      255
102
RTVSPost2010PropOp44
 70
     1
102
RTVSPost2010Prop45
280
     0
102
RTVSPost2010PropOp45
 70
     1
102
RTVSPost2010Prop46
 90
       50
102
RTVSPost2010PropOp46
 70
     1
102
RTVSPost2010Prop47
 90
       50
102
RTVSPost2010PropOp47
 70
     1
102
RTVSPost2010Prop48
 90
       50
102
RTVSPost2010PropOp48
 70
     1
102
RTVSPost2010Prop49
280
     0
102
RTVSPost2010PropOp49
 70
     1
102
RTVSPost2010Prop50
 90
       50
102
RTVSPost2010PropOp50
 70
     1
102
RTVSPost2010Prop51ColorIndex
 90
      256
102
RTVSPost2010Prop51ColorRGB
 90
-16777216
102
RTVSPost2010PropOp51
 70
     0
102
RTVSPost2010Prop52
140
1.0
102
RTVSPost2010PropOp52
 70
     0
102
RTVSPost2010Prop53
 90
        2
102
RTVSPost2010PropOp53
 70
     1
102
RTVSPost2010Prop54
  1
strokes_ogs.tif
102
RTVSPost2010PropOp54
 70
     1
102
RTVSPost2010Prop55
280
     0
102
RTVSPost2010PropOp55
 70
     1
102
RTVSPost2010Prop56
140
1.0
102
RTVSPost2010PropOp56
 70
     1
102
RTVSPost2010Prop57
140
1.0
102
RTVSPost2010PropOp57
 70
     1
102
RTVSPropertyOp0
 70
     1
102
RTVSPropertyOp1
 70
     1
102
RTVSPropertyOp2
 70
     1
102
RTVSPropertyOp3
 70
     1
102
RTVSPropertyOp4
 70
     1
102
RTVSPropertyOp5
 70
     1
102
RTVSPropertyOp6
 70
     1
102
RTVSPropertyOp7
 70
     1
102
RTVSPropertyOp8
 70
     1
102
RTVSPropertyOp9
 70
     1
102
RTVSPropertyOp10
 70
     1
102
RTVSPropertyOp11
 70
     1
102
RTVSPropertyOp12
 70
     1
102
RTVSPropertyOp13
 70
     1
102
RTVSPropertyOp14
 70
     1
102
RTVSPropertyOp15
 70
     1
102
RTVSPropertyOp16
 70
     1
102
RTVSPropertyOp17
 70
     1
102
RTVSPropertyOp18
 70
     1
102
RTVSPropertyOp19
 70
     1
102
RTVSPropertyOp20
 70
     1
102
RTVSPropertyOp21
 70
     1
102
RTVSPropertyOp22
 70
     1
102
RTVSPropertyOp23
 70
     1
102
RTVSPropertyOp24
 70
     1
102
RTVSPropertyOp25
 70
     1
102
RTVSPropertyOp26
 70
     1
102
RTVSPropertyOp27
 70
     1
102
RTVSPropertyOp28
 70
     1
102
RTVSPropertyOp29
 70
     1
102
RTVSPropertyOp30
 70
     1
102
RTVSPropertyOp31
 70
     1
102
RTVSPropertyOp32
 70
     1
102
RTVSPropertyOp33
 70
     1
102
RTVSPropertyOp34
 70
     1
102
RTVSPropertyOp35
 70
     1
102
RTVSPropertyOp36
 70
     1
102
RTVSPropertyOp37
 70
     1
102
RTVSPropertyOp38
 70
     1
102
RTVSPropertyOp39
 70
     1
102
RTVSPropertyOp40
 70
     1
102
RTVSPropertyOp41
 70
     1
102
RTVSPropertyOp42
 70
     1
102
RTVSPropertyOp43
 70
     1
102
RTVSPropertyOp44
 70
     1
102
RTVSPropertyOp45
 70
     1
102
RTVSPropertyOp46
 70
     1
102
RTVSPropertyOp47
 70
     1
102
RTVSPropertyOp48
 70
     1
102
RTVSPropertyOp49
 70
     1
102
RTVSPropertyOp50
 70
     1
102
RTVSPropertyOp51
 70
     0
102
RTVSPropertyOp52
 70
     0
102
RTVSPropertyOp53
 70
     1
102
RTVSPropertyOp54
 70
     1
102
RTVSPropertyOp55
 70
     1
102
RTVSPropertyOp56
 70
     1
102
RTVSPropertyOp57
 70
     1
102
RTVSPropertyOp58
 70
     1
102
RTVSPropertyOp59
 70
     1
102
RTVSPropertyOp60
 70
     1
102
RTVSPropertyOp61
 70
     1
102
RTVSPropertyOp62
 70
     1
  0
XRECORD
  5
BCBB
102
{ACAD_REACTORS
330
BCBA
102
}
330
BCBA
100
AcDbXrecord
280
     1
102
RTVSPost2010Prop28
280
     0
102
RTVSPost2010PropOp28
 70
     1
102
RTVSPost2010Prop29
280
     1
102
RTVSPost2010PropOp29
 70
     1
102
RTVSPost2010Prop30
280
     1
102
RTVSPost2010PropOp30
 70
     1
102
RTVSPost2010Prop31
280
     0
102
RTVSPost2010PropOp31
 70
     1
102
RTVSPost2010Prop32
280
     0
102
RTVSPost2010PropOp32
 70
     1
102
RTVSPost2010Prop33
280
     0
102
RTVSPost2010PropOp33
 70
     1
102
RTVSPost2010Prop34
280
     0
102
RTVSPost2010PropOp34
 70
     1
102
RTVSPost2010Prop35
280
     0
102
RTVSPost2010PropOp35
 70
     1
102
RTVSPost2010Prop36
280
     0
102
RTVSPost2010PropOp36
 70
     1
102
RTVSPost2010Prop37
 90
       50
102
RTVSPost2010PropOp37
 70
     1
102
RTVSPost2010Prop38
140
0.0
102
RTVSPost2010PropOp38
 70
     1
102
RTVSPost2010Prop39
140
1.0
102
RTVSPost2010PropOp39
 70
     1
102
RTVSPost2010Prop40
 90
        0
102
RTVSPost2010PropOp40
 70
     1
102
RTVSPost2010Prop41ColorIndex
 90
       18
102
RTVSPost2010Prop41ColorRGB
 90
        0
102
RTVSPost2010PropOp41
 70
     1
102
RTVSPost2010Prop42
 90
       50
102
RTVSPost2010PropOp42
 70
     1
102
RTVSPost2010Prop43
 90
        3
102
RTVSPost2010PropOp43
 70
     1
102
RTVSPost2010Prop44ColorIndex
 90
        5
102
RTVSPost2010Prop44ColorRGB
 90
      255
102
RTVSPost2010PropOp44
 70
     1
102
RTVSPost2010Prop45
280
     0
102
RTVSPost2010PropOp45
 70
     1
102
RTVSPost2010Prop46
 90
       50
102
RTVSPost2010PropOp46
 70
     1
102
RTVSPost2010Prop47
 90
       50
102
RTVSPost2010PropOp47
 70
     1
102
RTVSPost2010Prop48
 90
       50
102
RTVSPost2010PropOp48
 70
     1
102
RTVSPost2010Prop49
280
     0
102
RTVSPost2010PropOp49
 70
     1
102
RTVSPost2010Prop50
 90
       50
102
RTVSPost2010PropOp50
 70
     1
102
RTVSPost2010Prop51ColorIndex
 90
      256
102
RTVSPost2010Prop51ColorRGB
 90
-16777216
102
RTVSPost2010PropOp51
 70
     0
102
RTVSPost2010Prop52
140
1.0
102
RTVSPost2010PropOp52
 70
     0
102
RTVSPost2010Prop53
 90
        2
102
RTVSPost2010PropOp53
 70
     1
102
RTVSPost2010Prop54
  1
strokes_ogs.tif
102
RTVSPost2010PropOp54
 70
     1
102
RTVSPost2010Prop55
280
     0
102
RTVSPost2010PropOp55
 70
     1
102
RTVSPost2010Prop56
140
1.0
102
RTVSPost2010PropOp56
 70
     1
102
RTVSPost2010Prop57
140
1.0
102
RTVSPost2010PropOp57
 70
     1
102
RTVSPropertyOp0
 70
     1
102
RTVSPropertyOp1
 70
     1
102
RTVSPropertyOp2
 70
     1
102
RTVSPropertyOp3
 70
     1
102
RTVSPropertyOp4
 70
     1
102
RTVSPropertyOp5
 70
     1
102
RTVSPropertyOp6
 70
     1
102
RTVSPropertyOp7
 70
     1
102
RTVSPropertyOp8
 70
     1
102
RTVSPropertyOp9
 70
     1
102
RTVSPropertyOp10
 70
     1
102
RTVSPropertyOp11
 70
     1
102
RTVSPropertyOp12
 70
     1
102
RTVSPropertyOp13
 70
     1
102
RTVSPropertyOp14
 70
     1
102
RTVSPropertyOp15
 70
     1
102
RTVSPropertyOp16
 70
     1
102
RTVSPropertyOp17
 70
     1
102
RTVSPropertyOp18
 70
     1
102
RTVSPropertyOp19
 70
     1
102
RTVSPropertyOp20
 70
     1
102
RTVSPropertyOp21
 70
     1
102
RTVSPropertyOp22
 70
     1
102
RTVSPropertyOp23
 70
     1
102
RTVSPropertyOp24
 70
     1
102
RTVSPropertyOp25
 70
     1
102
RTVSPropertyOp26
 70
     1
102
RTVSPropertyOp27
 70
     1
102
RTVSPropertyOp28
 70
     1
102
RTVSPropertyOp29
 70
     1
102
RTVSPropertyOp30
 70
     1
102
RTVSPropertyOp31
 70
     1
102
RTVSPropertyOp32
 70
     1
102
RTVSPropertyOp33
 70
     1
102
RTVSPropertyOp34
 70
     1
102
RTVSPropertyOp35
 70
     1
102
RTVSPropertyOp36
 70
     1
102
RTVSPropertyOp37
 70
     1
102
RTVSPropertyOp38
 70
     1
102
RTVSPropertyOp39
 70
     1
102
RTVSPropertyOp40
 70
     1
102
RTVSPropertyOp41
 70
     1
102
RTVSPropertyOp42
 70
     1
102
RTVSPropertyOp43
 70
     1
102
RTVSPropertyOp44
 70
     1
102
RTVSPropertyOp45
 70
     1
102
RTVSPropertyOp46
 70
     1
102
RTVSPropertyOp47
 70
     1
102
RTVSPropertyOp48
 70
     1
102
RTVSPropertyOp49
 70
     1
102
RTVSPropertyOp50
 70
     1
102
RTVSPropertyOp51
 70
     0
102
RTVSPropertyOp52
 70
     0
102
RTVSPropertyOp53
 70
     1
102
RTVSPropertyOp54
 70
     1
102
RTVSPropertyOp55
 70
     1
102
RTVSPropertyOp56
 70
     1
102
RTVSPropertyOp57
 70
     1
102
RTVSPropertyOp58
 70
     1
102
RTVSPropertyOp59
 70
     1
102
RTVSPropertyOp60
 70
     1
102
RTVSPropertyOp61
 70
     1
102
RTVSPropertyOp62
 70
     1
  0
XRECORD
  5
BCB5
102
{ACAD_REACTORS
330
BCB4
102
}
330
BCB4
100
AcDbXrecord
280
     1
102
RTVSPost2010Prop28
280
     0
102
RTVSPost2010PropOp28
 70
     1
102
RTVSPost2010Prop29
280
     1
102
RTVSPost2010PropOp29
 70
     1
102
RTVSPost2010Prop30
280
     1
102
RTVSPost2010PropOp30
 70
     1
102
RTVSPost2010Prop31
280
     0
102
RTVSPost2010PropOp31
 70
     1
102
RTVSPost2010Prop32
280
     0
102
RTVSPost2010PropOp32
 70
     1
102
RTVSPost2010Prop33
280
     0
102
RTVSPost2010PropOp33
 70
     1
102
RTVSPost2010Prop34
280
     0
102
RTVSPost2010PropOp34
 70
     1
102
RTVSPost2010Prop35
280
     0
102
RTVSPost2010PropOp35
 70
     1
102
RTVSPost2010Prop36
280
     0
102
RTVSPost2010PropOp36
 70
     1
102
RTVSPost2010Prop37
 90
       50
102
RTVSPost2010PropOp37
 70
     1
102
RTVSPost2010Prop38
140
0.0
102
RTVSPost2010PropOp38
 70
     1
102
RTVSPost2010Prop39
140
1.0
102
RTVSPost2010PropOp39
 70
     1
102
RTVSPost2010Prop40
 90
        0
102
RTVSPost2010PropOp40
 70
     1
102
RTVSPost2010Prop41ColorIndex
 90
       18
102
RTVSPost2010Prop41ColorRGB
 90
        0
102
RTVSPost2010PropOp41
 70
     1
102
RTVSPost2010Prop42
 90
       50
102
RTVSPost2010PropOp42
 70
     1
102
RTVSPost2010Prop43
 90
        3
102
RTVSPost2010PropOp43
 70
     1
102
RTVSPost2010Prop44ColorIndex
 90
        5
102
RTVSPost2010Prop44ColorRGB
 90
      255
102
RTVSPost2010PropOp44
 70
     1
102
RTVSPost2010Prop45
280
     0
102
RTVSPost2010PropOp45
 70
     1
102
RTVSPost2010Prop46
 90
       50
102
RTVSPost2010PropOp46
 70
     1
102
RTVSPost2010Prop47
 90
       50
102
RTVSPost2010PropOp47
 70
     1
102
RTVSPost2010Prop48
 90
       50
102
RTVSPost2010PropOp48
 70
     1
102
RTVSPost2010Prop49
280
     0
102
RTVSPost2010PropOp49
 70
     1
102
RTVSPost2010Prop50
 90
       50
102
RTVSPost2010PropOp50
 70
     1
102
RTVSPost2010Prop51ColorIndex
 90
      256
102
RTVSPost2010Prop51ColorRGB
 90
-16777216
102
RTVSPost2010PropOp51
 70
     0
102
RTVSPost2010Prop52
140
1.0
102
RTVSPost2010PropOp52
 70
     0
102
RTVSPost2010Prop53
 90
        2
102
RTVSPost2010PropOp53
 70
     1
102
RTVSPost2010Prop54
  1
strokes_ogs.tif
102
RTVSPost2010PropOp54
 70
     1
102
RTVSPost2010Prop55
280
     0
102
RTVSPost2010PropOp55
 70
     1
102
RTVSPost2010Prop56
140
1.0
102
RTVSPost2010PropOp56
 70
     1
102
RTVSPost2010Prop57
140
1.0
102
RTVSPost2010PropOp57
 70
     1
102
RTVSPropertyOp0
 70
     1
102
RTVSPropertyOp1
 70
     1
102
RTVSPropertyOp2
 70
     1
102
RTVSPropertyOp3
 70
     1
102
RTVSPropertyOp4
 70
     1
102
RTVSPropertyOp5
 70
     1
102
RTVSPropertyOp6
 70
     1
102
RTVSPropertyOp7
 70
     1
102
RTVSPropertyOp8
 70
     1
102
RTVSPropertyOp9
 70
     1
102
RTVSPropertyOp10
 70
     1
102
RTVSPropertyOp11
 70
     1
102
RTVSPropertyOp12
 70
     1
102
RTVSPropertyOp13
 70
     1
102
RTVSPropertyOp14
 70
     1
102
RTVSPropertyOp15
 70
     1
102
RTVSPropertyOp16
 70
     1
102
RTVSPropertyOp17
 70
     1
102
RTVSPropertyOp18
 70
     1
102
RTVSPropertyOp19
 70
     1
102
RTVSPropertyOp20
 70
     1
102
RTVSPropertyOp21
 70
     1
102
RTVSPropertyOp22
 70
     1
102
RTVSPropertyOp23
 70
     1
102
RTVSPropertyOp24
 70
     1
102
RTVSPropertyOp25
 70
     1
102
RTVSPropertyOp26
 70
     1
102
RTVSPropertyOp27
 70
     1
102
RTVSPropertyOp28
 70
     1
102
RTVSPropertyOp29
 70
     1
102
RTVSPropertyOp30
 70
     1
102
RTVSPropertyOp31
 70
     1
102
RTVSPropertyOp32
 70
     1
102
RTVSPropertyOp33
 70
     1
102
RTVSPropertyOp34
 70
     1
102
RTVSPropertyOp35
 70
     1
102
RTVSPropertyOp36
 70
     1
102
RTVSPropertyOp37
 70
     1
102
RTVSPropertyOp38
 70
     1
102
RTVSPropertyOp39
 70
     1
102
RTVSPropertyOp40
 70
     1
102
RTVSPropertyOp41
 70
     1
102
RTVSPropertyOp42
 70
     1
102
RTVSPropertyOp43
 70
     1
102
RTVSPropertyOp44
 70
     1
102
RTVSPropertyOp45
 70
     1
102
RTVSPropertyOp46
 70
     1
102
RTVSPropertyOp47
 70
     1
102
RTVSPropertyOp48
 70
     1
102
RTVSPropertyOp49
 70
     1
102
RTVSPropertyOp50
 70
     1
102
RTVSPropertyOp51
 70
     0
102
RTVSPropertyOp52
 70
     0
102
RTVSPropertyOp53
 70
     1
102
RTVSPropertyOp54
 70
     1
102
RTVSPropertyOp55
 70
     1
102
RTVSPropertyOp56
 70
     1
102
RTVSPropertyOp57
 70
     1
102
RTVSPropertyOp58
 70
     1
102
RTVSPropertyOp59
 70
     1
102
RTVSPropertyOp60
 70
     1
102
RTVSPropertyOp61
 70
     1
102
RTVSPropertyOp62
 70
     1
  0
XRECORD
  5
BCB7
102
{ACAD_REACTORS
330
BCB6
102
}
330
BCB6
100
AcDbXrecord
280
     1
102
RTVSPost2010Prop28
280
     0
102
RTVSPost2010PropOp28
 70
     1
102
RTVSPost2010Prop29
280
     1
102
RTVSPost2010PropOp29
 70
     1
102
RTVSPost2010Prop30
280
     1
102
RTVSPost2010PropOp30
 70
     1
102
RTVSPost2010Prop31
280
     0
102
RTVSPost2010PropOp31
 70
     1
102
RTVSPost2010Prop32
280
     0
102
RTVSPost2010PropOp32
 70
     1
102
RTVSPost2010Prop33
280
     0
102
RTVSPost2010PropOp33
 70
     1
102
RTVSPost2010Prop34
280
     0
102
RTVSPost2010PropOp34
 70
     1
102
RTVSPost2010Prop35
280
     0
102
RTVSPost2010PropOp35
 70
     1
102
RTVSPost2010Prop36
280
     0
102
RTVSPost2010PropOp36
 70
     1
102
RTVSPost2010Prop37
 90
       50
102
RTVSPost2010PropOp37
 70
     1
102
RTVSPost2010Prop38
140
0.0
102
RTVSPost2010PropOp38
 70
     1
102
RTVSPost2010Prop39
140
1.0
102
RTVSPost2010PropOp39
 70
     1
102
RTVSPost2010Prop40
 90
        0
102
RTVSPost2010PropOp40
 70
     1
102
RTVSPost2010Prop41ColorIndex
 90
       18
102
RTVSPost2010Prop41ColorRGB
 90
        0
102
RTVSPost2010PropOp41
 70
     1
102
RTVSPost2010Prop42
 90
       50
102
RTVSPost2010PropOp42
 70
     1
102
RTVSPost2010Prop43
 90
        3
102
RTVSPost2010PropOp43
 70
     1
102
RTVSPost2010Prop44ColorIndex
 90
        5
102
RTVSPost2010Prop44ColorRGB
 90
      255
102
RTVSPost2010PropOp44
 70
     1
102
RTVSPost2010Prop45
280
     0
102
RTVSPost2010PropOp45
 70
     1
102
RTVSPost2010Prop46
 90
       50
102
RTVSPost2010PropOp46
 70
     1
102
RTVSPost2010Prop47
 90
       50
102
RTVSPost2010PropOp47
 70
     1
102
RTVSPost2010Prop48
 90
       50
102
RTVSPost2010PropOp48
 70
     1
102
RTVSPost2010Prop49
280
     0
102
RTVSPost2010PropOp49
 70
     1
102
RTVSPost2010Prop50
 90
       50
102
RTVSPost2010PropOp50
 70
     1
102
RTVSPost2010Prop51ColorIndex
 90
      256
102
RTVSPost2010Prop51ColorRGB
 90
-16777216
102
RTVSPost2010PropOp51
 70
     0
102
RTVSPost2010Prop52
140
1.0
102
RTVSPost2010PropOp52
 70
     0
102
RTVSPost2010Prop53
 90
        2
102
RTVSPost2010PropOp53
 70
     1
102
RTVSPost2010Prop54
  1
strokes_ogs.tif
102
RTVSPost2010PropOp54
 70
     1
102
RTVSPost2010Prop55
280
     0
102
RTVSPost2010PropOp55
 70
     1
102
RTVSPost2010Prop56
140
1.0
102
RTVSPost2010PropOp56
 70
     1
102
RTVSPost2010Prop57
140
1.0
102
RTVSPost2010PropOp57
 70
     1
102
RTVSPropertyOp0
 70
     1
102
RTVSPropertyOp1
 70
     1
102
RTVSPropertyOp2
 70
     1
102
RTVSPropertyOp3
 70
     1
102
RTVSPropertyOp4
 70
     1
102
RTVSPropertyOp5
 70
     1
102
RTVSPropertyOp6
 70
     1
102
RTVSPropertyOp7
 70
     1
102
RTVSPropertyOp8
 70
     1
102
RTVSPropertyOp9
 70
     1
102
RTVSPropertyOp10
 70
     1
102
RTVSPropertyOp11
 70
     1
102
RTVSPropertyOp12
 70
     1
102
RTVSPropertyOp13
 70
     1
102
RTVSPropertyOp14
 70
     1
102
RTVSPropertyOp15
 70
     1
102
RTVSPropertyOp16
 70
     1
102
RTVSPropertyOp17
 70
     1
102
RTVSPropertyOp18
 70
     1
102
RTVSPropertyOp19
 70
     1
102
RTVSPropertyOp20
 70
     1
102
RTVSPropertyOp21
 70
     1
102
RTVSPropertyOp22
 70
     1
102
RTVSPropertyOp23
 70
     1
102
RTVSPropertyOp24
 70
     1
102
RTVSPropertyOp25
 70
     1
102
RTVSPropertyOp26
 70
     1
102
RTVSPropertyOp27
 70
     1
102
RTVSPropertyOp28
 70
     1
102
RTVSPropertyOp29
 70
     1
102
RTVSPropertyOp30
 70
     1
102
RTVSPropertyOp31
 70
     1
102
RTVSPropertyOp32
 70
     1
102
RTVSPropertyOp33
 70
     1
102
RTVSPropertyOp34
 70
     1
102
RTVSPropertyOp35
 70
     1
102
RTVSPropertyOp36
 70
     1
102
RTVSPropertyOp37
 70
     1
102
RTVSPropertyOp38
 70
     1
102
RTVSPropertyOp39
 70
     1
102
RTVSPropertyOp40
 70
     1
102
RTVSPropertyOp41
 70
     1
102
RTVSPropertyOp42
 70
     1
102
RTVSPropertyOp43
 70
     1
102
RTVSPropertyOp44
 70
     1
102
RTVSPropertyOp45
 70
     1
102
RTVSPropertyOp46
 70
     1
102
RTVSPropertyOp47
 70
     1
102
RTVSPropertyOp48
 70
     1
102
RTVSPropertyOp49
 70
     1
102
RTVSPropertyOp50
 70
     1
102
RTVSPropertyOp51
 70
     0
102
RTVSPropertyOp52
 70
     0
102
RTVSPropertyOp53
 70
     1
102
RTVSPropertyOp54
 70
     1
102
RTVSPropertyOp55
 70
     1
102
RTVSPropertyOp56
 70
     1
102
RTVSPropertyOp57
 70
     1
102
RTVSPropertyOp58
 70
     1
102
RTVSPropertyOp59
 70
     1
102
RTVSPropertyOp60
 70
     1
102
RTVSPropertyOp61
 70
     1
102
RTVSPropertyOp62
 70
     1
  0
XRECORD
  5
BCA5
102
{ACAD_REACTORS
330
BCA4
102
}
330
BCA4
100
AcDbXrecord
280
     1
102
RTVSPost2010Prop28
280
     0
102
RTVSPost2010PropOp28
 70
     1
102
RTVSPost2010Prop29
280
     1
102
RTVSPost2010PropOp29
 70
     1
102
RTVSPost2010Prop30
280
     1
102
RTVSPost2010PropOp30
 70
     1
102
RTVSPost2010Prop31
280
     0
102
RTVSPost2010PropOp31
 70
     1
102
RTVSPost2010Prop32
280
     0
102
RTVSPost2010PropOp32
 70
     1
102
RTVSPost2010Prop33
280
     0
102
RTVSPost2010PropOp33
 70
     1
102
RTVSPost2010Prop34
280
     0
102
RTVSPost2010PropOp34
 70
     1
102
RTVSPost2010Prop35
280
     0
102
RTVSPost2010PropOp35
 70
     1
102
RTVSPost2010Prop36
280
     0
102
RTVSPost2010PropOp36
 70
     1
102
RTVSPost2010Prop37
 90
       50
102
RTVSPost2010PropOp37
 70
     1
102
RTVSPost2010Prop38
140
0.0
102
RTVSPost2010PropOp38
 70
     1
102
RTVSPost2010Prop39
140
1.0
102
RTVSPost2010PropOp39
 70
     1
102
RTVSPost2010Prop40
 90
        0
102
RTVSPost2010PropOp40
 70
     1
102
RTVSPost2010Prop41ColorIndex
 90
       18
102
RTVSPost2010Prop41ColorRGB
 90
        0
102
RTVSPost2010PropOp41
 70
     1
102
RTVSPost2010Prop42
 90
       50
102
RTVSPost2010PropOp42
 70
     1
102
RTVSPost2010Prop43
 90
        3
102
RTVSPost2010PropOp43
 70
     1
102
RTVSPost2010Prop44ColorIndex
 90
        5
102
RTVSPost2010Prop44ColorRGB
 90
      255
102
RTVSPost2010PropOp44
 70
     1
102
RTVSPost2010Prop45
280
     0
102
RTVSPost2010PropOp45
 70
     1
102
RTVSPost2010Prop46
 90
       50
102
RTVSPost2010PropOp46
 70
     1
102
RTVSPost2010Prop47
 90
       50
102
RTVSPost2010PropOp47
 70
     1
102
RTVSPost2010Prop48
 90
       50
102
RTVSPost2010PropOp48
 70
     1
102
RTVSPost2010Prop49
280
     0
102
RTVSPost2010PropOp49
 70
     1
102
RTVSPost2010Prop50
 90
       50
102
RTVSPost2010PropOp50
 70
     1
102
RTVSPost2010Prop51ColorIndex
 90
      256
102
RTVSPost2010Prop51ColorRGB
 90
-16777216
102
RTVSPost2010PropOp51
 70
     0
102
RTVSPost2010Prop52
140
1.0
102
RTVSPost2010PropOp52
 70
     0
102
RTVSPost2010Prop53
 90
        2
102
RTVSPost2010PropOp53
 70
     1
102
RTVSPost2010Prop54
  1
strokes_ogs.tif
102
RTVSPost2010PropOp54
 70
     1
102
RTVSPost2010Prop55
280
     0
102
RTVSPost2010PropOp55
 70
     1
102
RTVSPost2010Prop56
140
1.0
102
RTVSPost2010PropOp56
 70
     1
102
RTVSPost2010Prop57
140
1.0
102
RTVSPost2010PropOp57
 70
     1
102
RTVSPropertyOp0
 70
     1
102
RTVSPropertyOp1
 70
     1
102
RTVSPropertyOp2
 70
     1
102
RTVSPropertyOp3
 70
     1
102
RTVSPropertyOp4
 70
     1
102
RTVSPropertyOp5
 70
     1
102
RTVSPropertyOp6
 70
     1
102
RTVSPropertyOp7
 70
     1
102
RTVSPropertyOp8
 70
     1
102
RTVSPropertyOp9
 70
     1
102
RTVSPropertyOp10
 70
     1
102
RTVSPropertyOp11
 70
     1
102
RTVSPropertyOp12
 70
     1
102
RTVSPropertyOp13
 70
     1
102
RTVSPropertyOp14
 70
     1
102
RTVSPropertyOp15
 70
     1
102
RTVSPropertyOp16
 70
     1
102
RTVSPropertyOp17
 70
     1
102
RTVSPropertyOp18
 70
     1
102
RTVSPropertyOp19
 70
     1
102
RTVSPropertyOp20
 70
     1
102
RTVSPropertyOp21
 70
     1
102
RTVSPropertyOp22
 70
     1
102
RTVSPropertyOp23
 70
     1
102
RTVSPropertyOp24
 70
     1
102
RTVSPropertyOp25
 70
     1
102
RTVSPropertyOp26
 70
     1
102
RTVSPropertyOp27
 70
     1
102
RTVSPropertyOp28
 70
     1
102
RTVSPropertyOp29
 70
     1
102
RTVSPropertyOp30
 70
     1
102
RTVSPropertyOp31
 70
     1
102
RTVSPropertyOp32
 70
     1
102
RTVSPropertyOp33
 70
     1
102
RTVSPropertyOp34
 70
     1
102
RTVSPropertyOp35
 70
     1
102
RTVSPropertyOp36
 70
     1
102
RTVSPropertyOp37
 70
     1
102
RTVSPropertyOp38
 70
     1
102
RTVSPropertyOp39
 70
     1
102
RTVSPropertyOp40
 70
     1
102
RTVSPropertyOp41
 70
     1
102
RTVSPropertyOp42
 70
     1
102
RTVSPropertyOp43
 70
     1
102
RTVSPropertyOp44
 70
     1
102
RTVSPropertyOp45
 70
     1
102
RTVSPropertyOp46
 70
     1
102
RTVSPropertyOp47
 70
     1
102
RTVSPropertyOp48
 70
     1
102
RTVSPropertyOp49
 70
     1
102
RTVSPropertyOp50
 70
     1
102
RTVSPropertyOp51
 70
     0
102
RTVSPropertyOp52
 70
     0
102
RTVSPropertyOp53
 70
     1
102
RTVSPropertyOp54
 70
     1
102
RTVSPropertyOp55
 70
     1
102
RTVSPropertyOp56
 70
     1
102
RTVSPropertyOp57
 70
     1
102
RTVSPropertyOp58
 70
     1
102
RTVSPropertyOp59
 70
     1
102
RTVSPropertyOp60
 70
     1
102
RTVSPropertyOp61
 70
     1
102
RTVSPropertyOp62
 70
     1
  0
XRECORD
  5
BC99
102
{ACAD_REACTORS
330
BC98
102
}
330
BC98
100
AcDbXrecord
280
     1
102
RTVSPost2010Prop28
280
     0
102
RTVSPost2010PropOp28
 70
     1
102
RTVSPost2010Prop29
280
     1
102
RTVSPost2010PropOp29
 70
     1
102
RTVSPost2010Prop30
280
     1
102
RTVSPost2010PropOp30
 70
     1
102
RTVSPost2010Prop31
280
     0
102
RTVSPost2010PropOp31
 70
     1
102
RTVSPost2010Prop32
280
     0
102
RTVSPost2010PropOp32
 70
     1
102
RTVSPost2010Prop33
280
     0
102
RTVSPost2010PropOp33
 70
     1
102
RTVSPost2010Prop34
280
     0
102
RTVSPost2010PropOp34
 70
     1
102
RTVSPost2010Prop35
280
     0
102
RTVSPost2010PropOp35
 70
     1
102
RTVSPost2010Prop36
280
     0
102
RTVSPost2010PropOp36
 70
     1
102
RTVSPost2010Prop37
 90
       50
102
RTVSPost2010PropOp37
 70
     1
102
RTVSPost2010Prop38
140
0.0
102
RTVSPost2010PropOp38
 70
     1
102
RTVSPost2010Prop39
140
1.0
102
RTVSPost2010PropOp39
 70
     1
102
RTVSPost2010Prop40
 90
        0
102
RTVSPost2010PropOp40
 70
     1
102
RTVSPost2010Prop41ColorIndex
 90
       18
102
RTVSPost2010Prop41ColorRGB
 90
        0
102
RTVSPost2010PropOp41
 70
     1
102
RTVSPost2010Prop42
 90
       50
102
RTVSPost2010PropOp42
 70
     1
102
RTVSPost2010Prop43
 90
        3
102
RTVSPost2010PropOp43
 70
     1
102
RTVSPost2010Prop44ColorIndex
 90
        5
102
RTVSPost2010Prop44ColorRGB
 90
      255
102
RTVSPost2010PropOp44
 70
     1
102
RTVSPost2010Prop45
280
     0
102
RTVSPost2010PropOp45
 70
     1
102
RTVSPost2010Prop46
 90
       50
102
RTVSPost2010PropOp46
 70
     1
102
RTVSPost2010Prop47
 90
       50
102
RTVSPost2010PropOp47
 70
     1
102
RTVSPost2010Prop48
 90
       50
102
RTVSPost2010PropOp48
 70
     1
102
RTVSPost2010Prop49
280
     0
102
RTVSPost2010PropOp49
 70
     1
102
RTVSPost2010Prop50
 90
       50
102
RTVSPost2010PropOp50
 70
     1
102
RTVSPost2010Prop51ColorIndex
 90
      256
102
RTVSPost2010Prop51ColorRGB
 90
-16777216
102
RTVSPost2010PropOp51
 70
     0
102
RTVSPost2010Prop52
140
1.0
102
RTVSPost2010PropOp52
 70
     0
102
RTVSPost2010Prop53
 90
        2
102
RTVSPost2010PropOp53
 70
     1
102
RTVSPost2010Prop54
  1
strokes_ogs.tif
102
RTVSPost2010PropOp54
 70
     1
102
RTVSPost2010Prop55
280
     0
102
RTVSPost2010PropOp55
 70
     1
102
RTVSPost2010Prop56
140
1.0
102
RTVSPost2010PropOp56
 70
     1
102
RTVSPost2010Prop57
140
1.0
102
RTVSPost2010PropOp57
 70
     1
102
RTVSPropertyOp0
 70
     1
102
RTVSPropertyOp1
 70
     1
102
RTVSPropertyOp2
 70
     1
102
RTVSPropertyOp3
 70
     1
102
RTVSPropertyOp4
 70
     1
102
RTVSPropertyOp5
 70
     1
102
RTVSPropertyOp6
 70
     1
102
RTVSPropertyOp7
 70
     1
102
RTVSPropertyOp8
 70
     1
102
RTVSPropertyOp9
 70
     1
102
RTVSPropertyOp10
 70
     1
102
RTVSPropertyOp11
 70
     1
102
RTVSPropertyOp12
 70
     1
102
RTVSPropertyOp13
 70
     1
102
RTVSPropertyOp14
 70
     1
102
RTVSPropertyOp15
 70
     1
102
RTVSPropertyOp16
 70
     1
102
RTVSPropertyOp17
 70
     1
102
RTVSPropertyOp18
 70
     1
102
RTVSPropertyOp19
 70
     1
102
RTVSPropertyOp20
 70
     1
102
RTVSPropertyOp21
 70
     1
102
RTVSPropertyOp22
 70
     1
102
RTVSPropertyOp23
 70
     1
102
RTVSPropertyOp24
 70
     1
102
RTVSPropertyOp25
 70
     1
102
RTVSPropertyOp26
 70
     1
102
RTVSPropertyOp27
 70
     1
102
RTVSPropertyOp28
 70
     1
102
RTVSPropertyOp29
 70
     1
102
RTVSPropertyOp30
 70
     1
102
RTVSPropertyOp31
 70
     1
102
RTVSPropertyOp32
 70
     1
102
RTVSPropertyOp33
 70
     1
102
RTVSPropertyOp34
 70
     1
102
RTVSPropertyOp35
 70
     1
102
RTVSPropertyOp36
 70
     1
102
RTVSPropertyOp37
 70
     1
102
RTVSPropertyOp38
 70
     1
102
RTVSPropertyOp39
 70
     1
102
RTVSPropertyOp40
 70
     1
102
RTVSPropertyOp41
 70
     1
102
RTVSPropertyOp42
 70
     1
102
RTVSPropertyOp43
 70
     1
102
RTVSPropertyOp44
 70
     1
102
RTVSPropertyOp45
 70
     1
102
RTVSPropertyOp46
 70
     1
102
RTVSPropertyOp47
 70
     1
102
RTVSPropertyOp48
 70
     1
102
RTVSPropertyOp49
 70
     1
102
RTVSPropertyOp50
 70
     1
102
RTVSPropertyOp51
 70
     0
102
RTVSPropertyOp52
 70
     0
102
RTVSPropertyOp53
 70
     1
102
RTVSPropertyOp54
 70
     1
102
RTVSPropertyOp55
 70
     1
102
RTVSPropertyOp56
 70
     1
102
RTVSPropertyOp57
 70
     1
102
RTVSPropertyOp58
 70
     1
102
RTVSPropertyOp59
 70
     1
102
RTVSPropertyOp60
 70
     1
102
RTVSPropertyOp61
 70
     1
102
RTVSPropertyOp62
 70
     1
  0
XRECORD
  5
BCB9
102
{ACAD_REACTORS
330
BCB8
102
}
330
BCB8
100
AcDbXrecord
280
     1
102
RTVSPost2010Prop28
280
     0
102
RTVSPost2010PropOp28
 70
     1
102
RTVSPost2010Prop29
280
     1
102
RTVSPost2010PropOp29
 70
     1
102
RTVSPost2010Prop30
280
     1
102
RTVSPost2010PropOp30
 70
     1
102
RTVSPost2010Prop31
280
     0
102
RTVSPost2010PropOp31
 70
     1
102
RTVSPost2010Prop32
280
     0
102
RTVSPost2010PropOp32
 70
     1
102
RTVSPost2010Prop33
280
     0
102
RTVSPost2010PropOp33
 70
     1
102
RTVSPost2010Prop34
280
     0
102
RTVSPost2010PropOp34
 70
     1
102
RTVSPost2010Prop35
280
     0
102
RTVSPost2010PropOp35
 70
     1
102
RTVSPost2010Prop36
280
     0
102
RTVSPost2010PropOp36
 70
     1
102
RTVSPost2010Prop37
 90
       50
102
RTVSPost2010PropOp37
 70
     1
102
RTVSPost2010Prop38
140
0.0
102
RTVSPost2010PropOp38
 70
     1
102
RTVSPost2010Prop39
140
1.0
102
RTVSPost2010PropOp39
 70
     1
102
RTVSPost2010Prop40
 90
        0
102
RTVSPost2010PropOp40
 70
     1
102
RTVSPost2010Prop41ColorIndex
 90
       18
102
RTVSPost2010Prop41ColorRGB
 90
        0
102
RTVSPost2010PropOp41
 70
     1
102
RTVSPost2010Prop42
 90
       50
102
RTVSPost2010PropOp42
 70
     1
102
RTVSPost2010Prop43
 90
        3
102
RTVSPost2010PropOp43
 70
     1
102
RTVSPost2010Prop44ColorIndex
 90
        5
102
RTVSPost2010Prop44ColorRGB
 90
      255
102
RTVSPost2010PropOp44
 70
     1
102
RTVSPost2010Prop45
280
     0
102
RTVSPost2010PropOp45
 70
     1
102
RTVSPost2010Prop46
 90
       50
102
RTVSPost2010PropOp46
 70
     1
102
RTVSPost2010Prop47
 90
       50
102
RTVSPost2010PropOp47
 70
     1
102
RTVSPost2010Prop48
 90
       50
102
RTVSPost2010PropOp48
 70
     1
102
RTVSPost2010Prop49
280
     0
102
RTVSPost2010PropOp49
 70
     1
102
RTVSPost2010Prop50
 90
       50
102
RTVSPost2010PropOp50
 70
     1
102
RTVSPost2010Prop51ColorIndex
 90
      256
102
RTVSPost2010Prop51ColorRGB
 90
-16777216
102
RTVSPost2010PropOp51
 70
     0
102
RTVSPost2010Prop52
140
1.0
102
RTVSPost2010PropOp52
 70
     0
102
RTVSPost2010Prop53
 90
        2
102
RTVSPost2010PropOp53
 70
     1
102
RTVSPost2010Prop54
  1
strokes_ogs.tif
102
RTVSPost2010PropOp54
 70
     1
102
RTVSPost2010Prop55
280
     0
102
RTVSPost2010PropOp55
 70
     1
102
RTVSPost2010Prop56
140
1.0
102
RTVSPost2010PropOp56
 70
     1
102
RTVSPost2010Prop57
140
1.0
102
RTVSPost2010PropOp57
 70
     1
102
RTVSPropertyOp0
 70
     1
102
RTVSPropertyOp1
 70
     1
102
RTVSPropertyOp2
 70
     1
102
RTVSPropertyOp3
 70
     1
102
RTVSPropertyOp4
 70
     1
102
RTVSPropertyOp5
 70
     1
102
RTVSPropertyOp6
 70
     1
102
RTVSPropertyOp7
 70
     1
102
RTVSPropertyOp8
 70
     1
102
RTVSPropertyOp9
 70
     1
102
RTVSPropertyOp10
 70
     1
102
RTVSPropertyOp11
 70
     1
102
RTVSPropertyOp12
 70
     1
102
RTVSPropertyOp13
 70
     1
102
RTVSPropertyOp14
 70
     1
102
RTVSPropertyOp15
 70
     1
102
RTVSPropertyOp16
 70
     1
102
RTVSPropertyOp17
 70
     1
102
RTVSPropertyOp18
 70
     1
102
RTVSPropertyOp19
 70
     1
102
RTVSPropertyOp20
 70
     1
102
RTVSPropertyOp21
 70
     1
102
RTVSPropertyOp22
 70
     1
102
RTVSPropertyOp23
 70
     1
102
RTVSPropertyOp24
 70
     1
102
RTVSPropertyOp25
 70
     1
102
RTVSPropertyOp26
 70
     1
102
RTVSPropertyOp27
 70
     1
102
RTVSPropertyOp28
 70
     1
102
RTVSPropertyOp29
 70
     1
102
RTVSPropertyOp30
 70
     1
102
RTVSPropertyOp31
 70
     1
102
RTVSPropertyOp32
 70
     1
102
RTVSPropertyOp33
 70
     1
102
RTVSPropertyOp34
 70
     1
102
RTVSPropertyOp35
 70
     1
102
RTVSPropertyOp36
 70
     1
102
RTVSPropertyOp37
 70
     1
102
RTVSPropertyOp38
 70
     1
102
RTVSPropertyOp39
 70
     1
102
RTVSPropertyOp40
 70
     1
102
RTVSPropertyOp41
 70
     1
102
RTVSPropertyOp42
 70
     1
102
RTVSPropertyOp43
 70
     1
102
RTVSPropertyOp44
 70
     1
102
RTVSPropertyOp45
 70
     1
102
RTVSPropertyOp46
 70
     1
102
RTVSPropertyOp47
 70
     1
102
RTVSPropertyOp48
 70
     1
102
RTVSPropertyOp49
 70
     1
102
RTVSPropertyOp50
 70
     1
102
RTVSPropertyOp51
 70
     0
102
RTVSPropertyOp52
 70
     0
102
RTVSPropertyOp53
 70
     1
102
RTVSPropertyOp54
 70
     1
102
RTVSPropertyOp55
 70
     1
102
RTVSPropertyOp56
 70
     1
102
RTVSPropertyOp57
 70
     1
102
RTVSPropertyOp58
 70
     1
102
RTVSPropertyOp59
 70
     1
102
RTVSPropertyOp60
 70
     1
102
RTVSPropertyOp61
 70
     1
102
RTVSPropertyOp62
 70
     1
  0
ENDSEC
  0
EOF
