  0
SECTION
  2
HEADER
  9
$ACADVER
  1
AC1015
  9
$ACADMAINTVER
 70
    18
  9
$DWGCODEPAGE
  3
ANSI_1252
  9
$INSBASE
 10
0.0
 20
0.0
 30
0.0
  9
$EXTMIN
 10
-8.440245613968272
 20
-78.72747742748754
 30
-0.0015258207003583
  9
$EXTMAX
 10
23.76342825098368
 20
2.710052839142804
 30
0.0000000349246037
  9
$LIMMIN
 10
0.0
 20
0.0
  9
$LIMMAX
 10
420.0
 20
297.0
  9
$ORTHOMODE
 70
     0
  9
$REGENMODE
 70
     1
  9
$FILLMODE
 70
     1
  9
$QTEXTMODE
 70
     0
  9
$MIRRTEXT
 70
     0
  9
$LTSCALE
 40
1.0
  9
$ATTMODE
 70
     1
  9
$TEXTSIZE
 40
2.5
  9
$TRACEWID
 40
1.0
  9
$TEXTSTYLE
  7
Standard
  9
$CLAYER
  8
0
  9
$CELTYPE
  6
ByLayer
  9
$CECOLOR
 62
   256
  9
$CELTSCALE
 40
1.0
  9
$DISPSILH
 70
     0
  9
$DIMSCALE
 40
1.0
  9
$DIMASZ
 40
2.5
  9
$DIMEXO
 40
0.625
  9
$DIMDLI
 40
3.75
  9
$DIMRND
 40
0.0
  9
$DIMDLE
 40
0.0
  9
$DIMEXE
 40
1.25
  9
$DIMTP
 40
0.0
  9
$DIMTM
 40
0.0
  9
$DIMTXT
 40
2.5
  9
$DIMCEN
 40
2.5
  9
$DIMTSZ
 40
0.0
  9
$DIMTOL
 70
     0
  9
$DIMLIM
 70
     0
  9
$DIMTIH
 70
     0
  9
$DIMTOH
 70
     0
  9
$DIMSE1
 70
     0
  9
$DIMSE2
 70
     0
  9
$DIMTAD
 70
     1
  9
$DIMZIN
 70
     8
  9
$DIMBLK
  1

  9
$DIMASO
 70
     1
  9
$DIMSHO
 70
     1
  9
$DIMPOST
  1

  9
$DIMAPOST
  1

  9
$DIMALT
 70
     0
  9
$DIMALTD
 70
     3
  9
$DIMALTF
 40
0.03937007874016
  9
$DIMLFAC
 40
1.0
  9
$DIMTOFL
 70
     1
  9
$DIMTVP
 40
0.0
  9
$DIMTIX
 70
     0
  9
$DIMSOXD
 70
     0
  9
$DIMSAH
 70
     0
  9
$DIMBLK1
  1

  9
$DIMBLK2
  1

  9
$DIMSTYLE
  2
ISO-25
  9
$DIMCLRD
 70
     0
  9
$DIMCLRE
 70
     0
  9
$DIMCLRT
 70
     0
  9
$DIMTFAC
 40
1.0
  9
$DIMGAP
 40
0.625
  9
$DIMJUST
 70
     0
  9
$DIMSD1
 70
     0
  9
$DIMSD2
 70
     0
  9
$DIMTOLJ
 70
     0
  9
$DIMTZIN
 70
     8
  9
$DIMALTZ
 70
     0
  9
$DIMALTTZ
 70
     0
  9
$DIMUPT
 70
     0
  9
$DIMDEC
 70
     2
  9
$DIMTDEC
 70
     2
  9
$DIMALTU
 70
     2
  9
$DIMALTTD
 70
     3
  9
$DIMTXSTY
  7
Standard
  9
$DIMAUNIT
 70
     0
  9
$DIMADEC
 70
     0
  9
$DIMALTRND
 40
0.0
  9
$DIMAZIN
 70
     0
  9
$DIMDSEP
 70
    44
  9
$DIMATFIT
 70
     3
  9
$DIMFRAC
 70
     0
  9
$DIMLDRBLK
  1

  9
$DIMLUNIT
 70
     2
  9
$DIMLWD
 70
    -2
  9
$DIMLWE
 70
    -2
  9
$DIMTMOVE
 70
     0
  9
$LUNITS
 70
     2
  9
$LUPREC
 70
     4
  9
$SKETCHINC
 40
1.0
  9
$FILLETRAD
 40
0.0
  9
$AUNITS
 70
     0
  9
$AUPREC
 70
     0
  9
$MENU
  1
.
  9
$ELEVATION
 40
0.0
  9
$PELEVATION
 40
0.0
  9
$THICKNESS
 40
0.0
  9
$LIMCHECK
 70
     0
  9
$CHAMFERA
 40
0.0
  9
$CHAMFERB
 40
0.0
  9
$CHAMFERC
 40
0.0
  9
$CHAMFERD
 40
0.0
  9
$SKPOLY
 70
     0
  9
$TDCREATE
 40
2460131.529421297
  9
$TDUCREATE
 40
2460131.237754630
  9
$TDUPDATE
 40
2460131.555868056
  9
$TDUUPDATE
 40
2460131.264201389
  9
$TDINDWG
 40
0.0011458333
  9
$TDUSRTIMER
 40
0.0011458333
  9
$USRTIMER
 70
     1
  9
$ANGBASE
 50
0.0
  9
$ANGDIR
 70
     0
  9
$PDMODE
 70
     0
  9
$PDSIZE
 40
0.0
  9
$PLINEWID
 40
0.0
  9
$SPLFRAME
 70
     0
  9
$SPLINETYPE
 70
     6
  9
$SPLINESEGS
 70
     8
  9
$HANDSEED
  5
1ED3
  9
$SURFTAB1
 70
     6
  9
$SURFTAB2
 70
     6
  9
$SURFTYPE
 70
     6
  9
$SURFU
 70
     6
  9
$SURFV
 70
     6
  9
$UCSBASE
  2

  9
$UCSNAME
  2

  9
$UCSORG
 10
0.0
 20
0.0
 30
0.0
  9
$UCSXDIR
 10
1.0
 20
0.0
 30
0.0
  9
$UCSYDIR
 10
0.0
 20
1.0
 30
0.0
  9
$UCSORTHOREF
  2

  9
$UCSORTHOVIEW
 70
     0
  9
$UCSORGTOP
 10
0.0
 20
0.0
 30
0.0
  9
$UCSORGBOTTOM
 10
0.0
 20
0.0
 30
0.0
  9
$UCSORGLEFT
 10
0.0
 20
0.0
 30
0.0
  9
$UCSORGRIGHT
 10
0.0
 20
0.0
 30
0.0
  9
$UCSORGFRONT
 10
0.0
 20
0.0
 30
0.0
  9
$UCSORGBACK
 10
0.0
 20
0.0
 30
0.0
  9
$PUCSBASE
  2

  9
$PUCSNAME
  2

  9
$PUCSORG
 10
0.0
 20
0.0
 30
0.0
  9
$PUCSXDIR
 10
1.0
 20
0.0
 30
0.0
  9
$PUCSYDIR
 10
0.0
 20
1.0
 30
0.0
  9
$PUCSORTHOREF
  2

  9
$PUCSORTHOVIEW
 70
     0
  9
$PUCSORGTOP
 10
0.0
 20
0.0
 30
0.0
  9
$PUCSORGBOTTOM
 10
0.0
 20
0.0
 30
0.0
  9
$PUCSORGLEFT
 10
0.0
 20
0.0
 30
0.0
  9
$PUCSORGRIGHT
 10
0.0
 20
0.0
 30
0.0
  9
$PUCSORGFRONT
 10
0.0
 20
0.0
 30
0.0
  9
$PUCSORGBACK
 10
0.0
 20
0.0
 30
0.0
  9
$USERI1
 70
     0
  9
$USERI2
 70
     0
  9
$USERI3
 70
     0
  9
$USERI4
 70
     0
  9
$USERI5
 70
     0
  9
$USERR1
 40
0.0
  9
$USERR2
 40
0.0
  9
$USERR3
 40
0.0
  9
$USERR4
 40
0.0
  9
$USERR5
 40
0.0
  9
$WORLDVIEW
 70
     1
  9
$SHADEDGE
 70
     3
  9
$SHADEDIF
 70
    70
  9
$TILEMODE
 70
     1
  9
$MAXACTVP
 70
    48
  9
$PINSBASE
 10
0.0
 20
0.0
 30
0.0
  9
$PLIMCHECK
 70
     0
  9
$PEXTMIN
 10
0.0
 20
0.0
 30
0.0
  9
$PEXTMAX
 10
0.0
 20
0.0
 30
0.0
  9
$PLIMMIN
 10
0.0
 20
0.0
  9
$PLIMMAX
 10
12.0
 20
9.0
  9
$UNITMODE
 70
     0
  9
$VISRETAIN
 70
     1
  9
$PLINEGEN
 70
     0
  9
$PSLTSCALE
 70
     1
  9
$TREEDEPTH
 70
  3020
  9
$CMLSTYLE
  2
Standard
  9
$CMLJUST
 70
     0
  9
$CMLSCALE
 40
20.0
  9
$PROXYGRAPHICS
 70
     1
  9
$MEASUREMENT
 70
     1
  9
$CELWEIGHT
370
    -1
  9
$ENDCAPS
280
     0
  9
$JOINSTYLE
280
     0
  9
$LWDISPLAY
290
     0
  9
$INSUNITS
 70
     4
  9
$HYPERLINKBASE
  1

  9
$STYLESHEET
  1

  9
$XEDIT
290
     1
  9
$CEPSNTYPE
380
     0
  9
$PSTYLEMODE
290
     1
  9
$FINGERPRINTGUID
  2
{0D7D9762-F56E-A940-B762-8971DE047122}
  9
$VERSIONGUID
  2
{5B5A302C-6518-1446-8194-DFAEB413D4CA}
  9
$EXTNAMES
290
     1
  9
$PSVPSCALE
 40
0.0
  9
$OLESTARTUP
290
     0
  0
ENDSEC
  0
SECTION
  2
CLASSES
  0
CLASS
  1
ACDBDICTIONARYWDFLT
  2
AcDbDictionaryWithDefault
  3
ObjectDBX Classes
 90
        0
280
     0
281
     0
  0
CLASS
  1
ACDBPLACEHOLDER
  2
AcDbPlaceHolder
  3
ObjectDBX Classes
 90
        0
280
     0
281
     0
  0
CLASS
  1
LAYOUT
  2
AcDbLayout
  3
ObjectDBX Classes
 90
        0
280
     0
281
     0
  0
CLASS
  1
DICTIONARYVAR
  2
AcDbDictionaryVar
  3
ObjectDBX Classes
 90
        0
280
     0
281
     0
  0
CLASS
  1
TABLESTYLE
  2
AcDbTableStyle
  3
ObjectDBX Classes
 90
     4095
280
     0
281
     0
  0
CLASS
  1
MATERIAL
  2
AcDbMaterial
  3
ObjectDBX Classes
 90
     1153
280
     0
281
     0
  0
CLASS
  1
VISUALSTYLE
  2
AcDbVisualStyle
  3
ObjectDBX Classes
 90
     4095
280
     0
281
     0
  0
CLASS
  1
SCALE
  2
AcDbScale
  3
ObjectDBX Classes
 90
     1153
280
     0
281
     0
  0
CLASS
  1
MLEADERSTYLE
  2
AcDbMLeaderStyle
  3
ACDB_MLEADERSTYLE_CLASS
 90
     4095
280
     0
281
     0
  0
CLASS
  1
CELLSTYLEMAP
  2
AcDbCellStyleMap
  3
ObjectDBX Classes
 90
     1152
280
     0
281
     0
  0
CLASS
  1
EXACXREFPANELOBJECT
  2
ExAcXREFPanelObject
  3
EXAC_ESW
 90
    33793
280
     0
281
     0
  0
CLASS
  1
NPOCOLLECTION
  2
AcDbImpNonPersistentObjectsCollection
  3
ObjectDBX Classes
 90
    33921
280
     0
281
     0
  0
CLASS
  1
LAYER_INDEX
  2
AcDbLayerIndex
  3
ObjectDBX Classes
 90
    32768
280
     0
281
     0
  0
CLASS
  1
SPATIAL_INDEX
  2
AcDbSpatialIndex
  3
ObjectDBX Classes
 90
    32768
280
     0
281
     0
  0
CLASS
  1
IDBUFFER
  2
AcDbIdBuffer
  3
ObjectDBX Classes
 90
    32768
280
     0
281
     0
  0
CLASS
  1
ACDBSECTIONVIEWSTYLE
  2
AcDbSectionViewStyle
  3
ObjectDBX Classes
 90
     1025
280
     0
281
     0
  0
CLASS
  1
ACDBDETAILVIEWSTYLE
  2
AcDbDetailViewStyle
  3
ObjectDBX Classes
 90
     1025
280
     0
281
     0
  0
CLASS
  1
XRECORD
  2
AcDbXrecord
  3
ObjectDBX Classes
 90
        0
280
     0
281
     0
  0
ENDSEC
  0
SECTION
  2
TABLES
  0
TABLE
  2
VPORT
  5
8
102
{ACAD_XDICTIONARY
360
1DE1
102
}
330
0
100
AcDbSymbolTable
 70
     1
  0
VPORT
  5
EA
330
8
100
AcDbSymbolTableRecord
100
AcDbViewportTableRecord
  2
*Active
 70
     0
 10
0.0
 20
0.0
 11
1.0
 21
1.0
 12
7.661591318507699
 22
-38.00871229417237
 13
0.0
 23
0.0
 14
10.0
 24
10.0
 15
10.0
 25
10.0
 16
0.0
 26
0.0
 36
1.0
 17
0.0
 27
0.0
 37
0.0
 40
86.60143329952429
 41
0.9846153846153848
 42
50.0
 43
0.0
 44
0.0
 50
0.0
 51
0.0
 71
     0
 72
  1000
 73
     1
 74
     3
 75
     0
 76
     1
 77
     0
 78
     0
281
     0
 65
     1
110
0.0
120
0.0
130
0.0
111
1.0
121
0.0
131
0.0
112
0.0
122
1.0
132
0.0
 79
     0
146
0.0
1001
ACAD_NAV_VCDISPLAY
1070
     3
  0
ENDTAB
  0
TABLE
  2
LTYPE
  5
5
330
0
100
AcDbSymbolTable
 70
     1
  0
LTYPE
  5
14
330
5
100
AcDbSymbolTableRecord
100
AcDbLinetypeTableRecord
  2
ByBlock
 70
     0
  3

 72
    65
 73
     0
 40
0.0
  0
LTYPE
  5
15
330
5
100
AcDbSymbolTableRecord
100
AcDbLinetypeTableRecord
  2
ByLayer
 70
     0
  3

 72
    65
 73
     0
 40
0.0
  0
LTYPE
  5
16
330
5
100
AcDbSymbolTableRecord
100
AcDbLinetypeTableRecord
  2
Continuous
 70
     0
  3
Solid line
 72
    65
 73
     0
 40
0.0
  0
ENDTAB
  0
TABLE
  2
LAYER
  5
2
102
{ACAD_XDICTIONARY
360
1FF
102
}
330
0
100
AcDbSymbolTable
 70
     1
  0
LAYER
  5
10
102
{ACAD_XDICTIONARY
360
13C
102
}
330
2
100
AcDbSymbolTableRecord
100
AcDbLayerTableRecord
  2
0
 70
     0
 62
     7
  6
Continuous
370
    -3
390
F
  0
ENDTAB
  0
TABLE
  2
STYLE
  5
3
330
0
100
AcDbSymbolTable
 70
     1
  0
STYLE
  5
11
330
3
100
AcDbSymbolTableRecord
100
AcDbTextStyleTableRecord
  2
Standard
 70
     0
 40
0.0
 41
1.0
 50
0.0
 71
     0
 42
2.5
  3
arial.ttf
  4

1001
ACAD
1000
Arial
1071
       34
  0
ENDTAB
  0
TABLE
  2
VIEW
  5
6
330
0
100
AcDbSymbolTable
 70
     0
  0
ENDTAB
  0
TABLE
  2
UCS
  5
7
330
0
100
AcDbSymbolTable
 70
     0
  0
ENDTAB
  0
TABLE
  2
APPID
  5
9
330
0
100
AcDbSymbolTable
 70
     8
  0
APPID
  5
12
330
9
100
AcDbSymbolTableRecord
100
AcDbRegAppTableRecord
  2
ACAD
 70
     0
  0
APPID
  5
9E
330
9
100
AcDbSymbolTableRecord
100
AcDbRegAppTableRecord
  2
ACAD_PSEXT
 70
     0
  0
APPID
  5
133
330
9
100
AcDbSymbolTableRecord
100
AcDbRegAppTableRecord
  2
AcadAnnoPO
 70
     0
  0
APPID
  5
134
330
9
100
AcDbSymbolTableRecord
100
AcDbRegAppTableRecord
  2
AcadAnnotative
 70
     0
  0
APPID
  5
135
330
9
100
AcDbSymbolTableRecord
100
AcDbRegAppTableRecord
  2
ACAD_DSTYLE_DIMJAG
 70
     0
  0
APPID
  5
136
330
9
100
AcDbSymbolTableRecord
100
AcDbRegAppTableRecord
  2
ACAD_DSTYLE_DIMTALN
 70
     0
  0
APPID
  5
165
330
9
100
AcDbSymbolTableRecord
100
AcDbRegAppTableRecord
  2
ACAD_MLEADERVER
 70
     0
  0
APPID
  5
217
330
9
100
AcDbSymbolTableRecord
100
AcDbRegAppTableRecord
  2
ACAD_NAV_VCDISPLAY
 70
     0
  0
ENDTAB
  0
TABLE
  2
DIMSTYLE
  5
A
330
0
100
AcDbSymbolTable
 70
     1
100
AcDbDimStyleTable
 71
     0
  0
DIMSTYLE
105
27
330
A
100
AcDbSymbolTableRecord
100
AcDbDimStyleTableRecord
  2
ISO-25
 70
     0
 41
2.5
 42
0.625
 43
3.75
 44
1.25
 73
     0
 74
     0
 77
     1
 78
     8
140
2.5
141
2.5
143
0.03937007874016
147
0.625
171
     3
172
     1
271
     2
272
     2
274
     3
278
    44
283
     0
284
     8
340
11
  0
ENDTAB
  0
TABLE
  2
BLOCK_RECORD
  5
1
330
0
100
AcDbSymbolTable
 70
     4
  0
BLOCK_RECORD
  5
1F
102
{ACAD_XDICTIONARY
360
1CE
102
}
330
1
100
AcDbSymbolTableRecord
100
AcDbBlockTableRecord
  2
*Model_Space
340
22
  0
BLOCK_RECORD
  5
D2
102
{ACAD_XDICTIONARY
360
1D92
102
}
330
1
100
AcDbSymbolTableRecord
100
AcDbBlockTableRecord
  2
*Paper_Space
340
D3
  0
BLOCK_RECORD
  5
D6
102
{ACAD_XDICTIONARY
360
1D94
102
}
330
1
100
AcDbSymbolTableRecord
100
AcDbBlockTableRecord
  2
*Paper_Space0
340
D7
  0
BLOCK_RECORD
  5
1B05
330
1
100
AcDbSymbolTableRecord
100
AcDbBlockTableRecord
  2
CSA50x35-Front
340
0
102
{BLKREFS
331
1D8B
102
}
  0
BLOCK_RECORD
  5
1CC2
330
1
100
AcDbSymbolTableRecord
100
AcDbBlockTableRecord
  2
CSA50x35-Top
340
0
102
{BLKREFS
331
1D8C
102
}
  0
BLOCK_RECORD
  5
1CFC
330
1
100
AcDbSymbolTableRecord
100
AcDbBlockTableRecord
  2
CSA50x35-ISO
340
0
102
{BLKREFS
331
1D8D
102
}
  0
ENDTAB
  0
ENDSEC
  0
SECTION
  2
BLOCKS
  0
BLOCK
  5
20
330
1F
100
AcDbEntity
  8
0
100
AcDbBlockBegin
  2
*Model_Space
 70
     0
 10
0.0
 20
0.0
 30
0.0
  3
*Model_Space
  1

  0
ENDBLK
  5
21
330
1F
100
AcDbEntity
  8
0
100
AcDbBlockEnd
  0
BLOCK
  5
D4
330
D2
100
AcDbEntity
 67
     1
  8
0
100
AcDbBlockBegin
  2
*Paper_Space
 70
     0
 10
0.0
 20
0.0
 30
0.0
  3
*Paper_Space
  1

  0
ENDBLK
  5
D5
330
D2
100
AcDbEntity
 67
     1
  8
0
100
AcDbBlockEnd
  0
BLOCK
  5
D8
330
D6
100
AcDbEntity
 67
     1
  8
0
100
AcDbBlockBegin
  2
*Paper_Space0
 70
     0
 10
0.0
 20
0.0
 30
0.0
  3
*Paper_Space0
  1

  0
ENDBLK
  5
D9
330
D6
100
AcDbEntity
 67
     1
  8
0
100
AcDbBlockEnd
  0
BLOCK
  5
1B06
330
1B05
100
AcDbEntity
  8
0
100
AcDbBlockBegin
  2
CSA50x35-Front
 70
     0
 10
0.0
 20
0.0
 30
0.0
  3
CSA50x35-Front
  1

  0
LINE
  5
1B08
330
1B05
100
AcDbEntity
  8
0
100
AcDbLine
 10
1.575
 20
-25.0
 30
0.0
 11
1.575
 21
-26.05
 31
0.0
  0
LINE
  5
1B09
330
1B05
100
AcDbEntity
  8
0
100
AcDbLine
 10
0.7945863477877135
 20
-31.09448332587803
 30
0.0
 11
0.0
 21
-35.0
 31
0.0
  0
LINE
  5
1B0A
330
1B05
100
AcDbEntity
  8
0
100
AcDbLine
 10
1.16579424896209
 20
-30.95937469912627
 30
0.0
 11
0.7945863477877135
 21
-31.09448332587803
 31
0.0
  0
LINE
  5
1B0B
330
1B05
100
AcDbEntity
  8
0
100
AcDbLine
 10
0.8457723184836879
 20
-30.84289624211951
 30
0.0
 11
1.16579424896209
 21
-30.95937469912627
 31
0.0
  0
LINE
  5
1B0C
330
1B05
100
AcDbEntity
  8
0
100
AcDbLine
 10
1.2472059579998
 20
-28.86978686634338
 30
0.0
 11
0.8457723184836879
 21
-30.84289624211951
 31
0.0
  0
LINE
  5
1B0D
330
1B05
100
AcDbEntity
  8
0
100
AcDbLine
 10
1.825308636207348
 20
-28.65937469912628
 30
0.0
 11
1.2472059579998
 21
-28.86978686634338
 31
0.0
  0
LINE
  5
1B0E
330
1B05
100
AcDbEntity
  8
0
100
AcDbLine
 10
1.326920712595197
 20
-28.4779763298137
 30
0.0
 11
1.825308636207347
 21
-28.65937469912628
 31
0.0
  0
LINE
  5
1B0F
330
1B05
100
AcDbEntity
  8
0
100
AcDbLine
 10
1.574999999999999
 20
-27.25862767606286
 30
0.0
 11
1.326920712595197
 21
-28.4779763298137
 31
0.0
  0
LINE
  5
1B10
330
1B05
100
AcDbEntity
  8
0
100
AcDbLine
 10
1.575
 20
-26.66874939825254
 30
0.0
 11
1.574999999999999
 21
-27.25862767606286
 31
0.0
  0
LINE
  5
1B11
330
1B05
100
AcDbEntity
  8
0
100
AcDbLine
 10
2.425
 20
-26.35937469912627
 30
0.0
 11
1.575
 21
-26.66874939825254
 31
0.0
  0
LINE
  5
1B12
330
1B05
100
AcDbEntity
  8
0
100
AcDbLine
 10
1.575
 20
-26.05
 30
0.0
 11
2.424999999999999
 21
-26.35937469912627
 31
0.0
  0
SPLINE
  5
1B13
330
1B05
100
AcDbEntity
  8
0
100
AcDbSpline
210
0.0
220
0.0
230
1.0
 70
     8
 71
     3
 72
    14
 73
    10
 74
     0
 42
0.000000001
 43
0.0000000001
 40
0.1005125559712217
 40
0.1005125559712217
 40
0.1005125559712217
 40
0.1005125559712217
 40
0.2282000586034313
 40
0.2282000586034313
 40
0.3765532403696903
 40
0.3765532403696903
 40
0.4839827466135811
 40
0.4839827466135811
 40
0.572739848594035
 40
0.572739848594035
 40
0.572739848594035
 40
0.572739848594035
 10
0.8540979727789878
 20
-26.43153372052336
 30
0.0
 10
0.9591989432026691
 20
-26.13699677229135
 30
0.0
 10
1.060170117199694
 20
-25.90757374781517
 30
0.0
 10
1.255075241714828
 20
-25.50866994460726
 30
0.0
 10
1.346211325099846
 20
-25.35305077968838
 30
0.0
 10
1.466306528729372
 20
-25.15928846524398
 30
0.0
 10
1.509582182407782
 20
-25.09470298948287
 30
0.0
 10
1.562102083729834
 20
-25.0180518389609
 30
0.0
 10
1.574999999999999
 20
-25.0
 30
0.0
 10
1.574999999999999
 20
-25.0
 30
0.0
  0
SPLINE
  5
1B14
330
1B05
100
AcDbEntity
  8
0
100
AcDbSpline
210
0.0
220
0.0
230
1.0
 70
     8
 71
     3
 72
     8
 73
     4
 74
     0
 42
0.000000001
 43
0.0000000001
 40
0.0
 40
0.0
 40
0.0
 40
0.0
 40
0.0978355287959661
 40
0.0978355287959661
 40
0.0978355287959661
 40
0.0978355287959661
 10
0.7262583378009346
 20
-26.81950916697536
 30
0.0
 10
0.7632677005335892
 20
-26.69774493164943
 30
0.0
 10
0.8052466979015505
 20
-26.56843530565748
 30
0.0
 10
0.8540979727789878
 20
-26.43153372052336
 30
0.0
  0
SPLINE
  5
1B15
330
1B05
100
AcDbEntity
  8
0
100
AcDbSpline
210
0.0
220
0.0
230
1.0
 70
     8
 71
     3
 72
     8
 73
     4
 74
     0
 42
0.000000001
 43
0.0000000001
 40
0.0064044792870387
 40
0.0064044792870387
 40
0.0064044792870387
 40
0.0064044792870387
 40
0.086959285698193
 40
0.086959285698193
 40
0.086959285698193
 40
0.086959285698193
 10
0.6552582181952049
 20
-27.0648365238769
 30
0.0
 10
0.6748792646996567
 20
-26.99360151636952
 30
0.0
 10
0.7014472556071251
 20
-26.90113992816306
 30
0.0
 10
0.7262583378009367
 20
-26.81950916697535
 30
0.0
  0
SPLINE
  5
1B16
330
1B05
100
AcDbEntity
  8
0
100
AcDbSpline
210
0.0
220
0.0
230
1.0
 70
     8
 71
     3
 72
     8
 73
     4
 74
     0
 42
0.000000001
 43
0.0000000001
 40
0.0000001000108896
 40
0.0000001000108896
 40
0.0000001000108896
 40
0.0000001000108896
 40
0.0207687931035047
 40
0.0207687931035047
 40
0.0207687931035047
 40
0.0207687931035047
 10
0.6038747671928189
 20
-27.258627676063
 30
0.0
 10
0.6209014098436099
 20
-27.19189852583026
 30
0.0
 10
0.6380445858099931
 20
-27.12733131649214
 30
0.0
 10
0.6552582181952057
 20
-27.06483652387689
 30
0.0
  0
SPLINE
  5
1B17
330
1B05
100
AcDbEntity
  8
0
100
AcDbSpline
210
0.0
220
0.0
230
1.0
 70
     8
 71
     3
 72
     8
 73
     4
 74
     0
 42
0.000000001
 43
0.0000000001
 40
0.5689687755740786
 40
0.5689687755740786
 40
0.5689687755740786
 40
0.5689687755740786
 40
0.7348399373748489
 40
0.7348399373748489
 40
0.7348399373748489
 40
0.7348399373748489
 10
0.2820026564177938
 20
-28.98173368002034
 30
0.0
 10
0.360321426536043
 20
-28.3908196262294
 30
0.0
 10
0.465189147045758
 20
-27.80215077523107
 30
0.0
 10
0.6038747671928549
 20
-27.25862767606286
 30
0.0
  0
SPLINE
  5
1B18
330
1B05
100
AcDbEntity
  8
0
100
AcDbSpline
210
0.0
220
0.0
230
1.0
 70
     8
 71
     3
 72
     8
 73
     4
 74
     0
 42
0.000000001
 43
0.0000000001
 40
0.0
 40
0.0
 40
0.0
 40
0.0
 40
0.0543841492853723
 40
0.0543841492853723
 40
0.0543841492853723
 40
0.0543841492853723
 10
0.2569231859535687
 20
-29.17805738829775
 30
0.0
 10
0.2653016628637379
 20
-29.10997484245847
 30
0.0
 10
0.2736621812466559
 20
-29.04466248955134
 30
0.0
 10
0.2820026564177938
 20
-28.98173368002034
 30
0.0
  0
SPLINE
  5
1B19
330
1B05
100
AcDbEntity
  8
0
100
AcDbSpline
210
0.0
220
0.0
230
1.0
 70
     8
 71
     3
 72
     8
 73
     4
 74
     0
 42
0.000000001
 43
0.0000000001
 40
0.0281803901965668
 40
0.0281803901965668
 40
0.0281803901965668
 40
0.0281803901965668
 40
0.0636951687305395
 40
0.0636951687305395
 40
0.0636951687305395
 40
0.0636951687305395
 10
0.2361305594002149
 20
-29.3526712523634
 30
0.0
 10
0.2415555979229073
 20
-29.30556769071147
 30
0.0
 10
0.2483843215970318
 20
-29.24744322419638
 30
0.0
 10
0.2569231859535687
 20
-29.17805738829775
 30
0.0
  0
SPLINE
  5
1B1A
330
1B05
100
AcDbEntity
  8
0
100
AcDbSpline
210
0.0
220
0.0
230
1.0
 70
     8
 71
     3
 72
    10
 73
     6
 74
     0
 42
0.000000001
 43
0.0000000001
 40
0.3367860498960268
 40
0.3367860498960268
 40
0.3367860498960268
 40
0.3367860498960268
 40
0.4119257621696896
 40
0.4119257621696896
 40
0.5342474669008823
 40
0.5342474669008823
 40
0.5342474669008823
 40
0.5342474669008823
 10
0.074556285736854
 20
-31.39579087585237
 30
0.0
 10
0.0875884531361784
 20
-31.13568049491533
 30
0.0
 10
0.1027623805429463
 20
-30.87890285265234
 30
0.0
 10
0.1488066881548177
 20
-30.2186386767292
 30
0.0
 10
0.1860358135921885
 20
-29.78762502047701
 30
0.0
 10
0.2361305594002149
 20
-29.3526712523634
 30
0.0
  0
SPLINE
  5
1B1B
330
1B05
100
AcDbEntity
  8
0
100
AcDbSpline
210
0.0
220
0.0
230
1.0
 70
     8
 71
     3
 72
    10
 73
     6
 74
     0
 42
0.000000001
 43
0.0000000001
 40
-0.0107409714920118
 40
-0.0107409714920118
 40
-0.0107409714920118
 40
-0.0107409714920118
 40
0.0
 40
0.0
 40
0.3154916394763516
 40
0.3154916394763516
 40
0.3154916394763516
 40
0.3154916394763516
 10
0.0
 20
-35.0
 30
0.0
 10
0.0
 20
-34.96491552227784
 30
0.0
 10
0.000014340651007
 20
-34.92982913592853
 30
0.0
 10
0.000899598944014
 20
-33.86421790867912
 30
0.0
 10
0.0142498282421715
 20
-32.71700614519987
 30
0.0
 10
0.063984120144621
 20
-31.61768777251199
 30
0.0
  0
SPLINE
  5
1B1C
330
1B05
100
AcDbEntity
  8
0
100
AcDbSpline
210
0.0
220
0.0
230
1.0
 70
     8
 71
     3
 72
     8
 73
     4
 74
     0
 42
0.000000001
 43
0.0000000001
 40
0.0
 40
0.0
 40
0.0
 40
0.0
 40
0.0285765779016082
 40
0.0285765779016082
 40
0.0285765779016082
 40
0.0285765779016082
 10
0.069013701406771
 20
-31.50929533905642
 30
0.0
 10
0.0706880213628656
 20
-31.47410199718943
 30
0.0
 10
0.0726145041528911
 20
-31.43454708683809
 30
0.0
 10
0.074556285736854
 20
-31.39579087585237
 30
0.0
  0
SPLINE
  5
1B1D
330
1B05
100
AcDbEntity
  8
0
100
AcDbSpline
210
0.0
220
0.0
230
1.0
 70
     8
 71
     3
 72
     8
 73
     4
 74
     0
 42
0.000000001
 43
0.0000000001
 40
0.003072515399155
 40
0.003072515399155
 40
0.003072515399155
 40
0.003072515399155
 40
0.0354193688326738
 40
0.0354193688326738
 40
0.0354193688326738
 40
0.0354193688326738
 10
0.063984120144621
 20
-31.61768777251199
 30
0.0
 10
0.0655325101023826
 20
-31.58346242288821
 30
0.0
 10
0.0673871026736159
 20
-31.5434856054317
 30
0.0
 10
0.0690137014067708
 20
-31.50929533905643
 30
0.0
  0
SPLINE
  5
1B1E
330
1B05
100
AcDbEntity
  8
0
100
AcDbSpline
210
0.0
220
0.0
230
1.0
 70
     8
 71
     3
 72
    14
 73
    10
 74
     0
 42
0.000000001
 43
0.0000000001
 40
0.0735353964092729
 40
0.0735353964092729
 40
0.0735353964092729
 40
0.0735353964092729
 40
0.102678168887795
 40
0.102678168887795
 40
0.1351070820052099
 40
0.1351070820052099
 40
0.1666682168919333
 40
0.1666682168919333
 40
0.1950589943730541
 40
0.1950589943730541
 40
0.1950589943730541
 40
0.1950589943730541
 10
0.0639841201446204
 20
-31.61768777251199
 30
0.0
 10
-0.0221249026804209
 20
-31.66175581451363
 30
0.0
 10
-0.1070107001516271
 20
-31.70611463347696
 30
0.0
 10
-0.2739092564810288
 20
-31.80237652298828
 30
0.0
 10
-0.3523323638882702
 20
-31.85332015357122
 30
0.0
 10
-0.4769516973422859
 20
-31.9570523299381
 30
0.0
 10
-0.5223769975166372
 20
-32.00847589630394
 30
0.0
 10
-0.5714900127976618
 20
-32.10937582814933
 30
0.0
 10
-0.5783344797117424
 20
-32.15739497803482
 30
0.0
 10
-0.5682767026856859
 20
-32.20683076548427
 30
0.0
  0
SPLINE
  5
1B1F
330
1B05
100
AcDbEntity
  8
0
100
AcDbSpline
210
0.0
220
0.0
230
1.0
 70
     8
 71
     3
 72
    12
 73
     8
 74
     0
 42
0.000000001
 43
0.0000000001
 40
0.2684151544746575
 40
0.2684151544746575
 40
0.2684151544746575
 40
0.2684151544746575
 40
0.2806516175972645
 40
0.2806516175972645
 40
0.3157908128258802
 40
0.3157908128258802
 40
0.3207956403114604
 40
0.3207956403114604
 40
0.3207956403114604
 40
0.3207956403114604
 10
-0.3579989510562079
 20
-31.64169413697085
 30
0.0
 10
-0.3297365802101216
 20
-31.62206484058259
 30
0.0
 10
-0.2996261473203384
 20
-31.60253851485309
 30
0.0
 10
-0.1769189100627404
 20
-31.52706775250959
 30
0.0
 10
-0.0752386443999616
 20
-31.47280270027526
 30
0.0
 10
0.0446440944134202
 20
-31.41108600250563
 30
0.0
 10
0.059603734338352
 20
-31.40342439891707
 30
0.0
 10
0.0745562857368538
 20
-31.39579087585237
 30
0.0
  0
SPLINE
  5
1B20
330
1B05
100
AcDbEntity
  8
0
100
AcDbSpline
210
0.0
220
0.0
230
1.0
 70
     8
 71
     3
 72
    11
 73
     7
 74
     0
 42
0.000000001
 43
0.0000000001
 40
0.9323508417455473
 40
0.9323508417455473
 40
0.9323508417455473
 40
0.9323508417455473
 40
2.32229613675509
 40
2.32229613675509
 40
2.32229613675509
 40
3.363169112800025
 40
3.363169112800025
 40
3.363169112800025
 40
3.363169112800025
 10
0.0690137014067727
 20
-31.50929533905642
 30
0.0
 10
-0.4002910142851788
 20
-31.67889478170796
 30
0.0
 10
-0.7840853162840654
 20
-31.8484942243595
 30
0.0
 10
-0.8355430469400994
 20
-32.01809366701103
 30
0.0
 10
-0.874077629157666
 20
-32.14509972778342
 30
0.0
 10
-0.7342380503778152
 20
-32.27210578855579
 30
0.0
 10
-0.526497693840716
 20
-32.39911184932818
 30
0.0
  0
SPLINE
  5
1B21
330
1B05
100
AcDbEntity
  8
0
100
AcDbSpline
210
0.0
220
0.0
230
1.0
 70
     8
 71
     3
 72
    11
 73
     7
 74
     0
 42
0.000000001
 43
0.0000000001
 40
4.919117650820523
 40
4.919117650820523
 40
4.919117650820523
 40
4.919117650820523
 40
5.193840935830023
 40
5.193840935830023
 40
5.193840935830023
 40
5.654866776461624
 40
5.654866776461624
 40
5.654866776461624
 40
5.654866776461624
 10
0.4105585813750865
 20
-32.96867672168009
 30
0.0
 10
0.4437051994556479
 20
-33.00219812442039
 30
0.0
 10
0.4696902373373903
 20
-33.0357195271607
 30
0.0
 10
0.4868368510326116
 20
-33.06924092990101
 30
0.0
 10
0.5156113758878725
 20
-33.12549474499705
 30
0.0
 10
0.5230432891057991
 20
-33.18174856009309
 30
0.0
 10
0.5115351642437634
 20
-33.23800237518913
 30
0.0
  0
LINE
  5
1B22
330
1B05
100
AcDbEntity
  8
0
100
AcDbLine
 10
0.3462198808407113
 20
-33.29827491838915
 30
0.0
 11
0.5115351642437631
 21
-33.23800237518913
 31
0.0
  0
LINE
  5
1B23
330
1B05
100
AcDbEntity
  8
0
100
AcDbLine
 10
0.5115351642437631
 20
-33.23800237518913
 30
0.0
 11
0.3690514771252689
 21
-33.18605403738052
 31
0.0
  0
SPLINE
  5
1B24
330
1B05
100
AcDbEntity
  8
0
100
AcDbSpline
210
0.0
220
0.0
230
1.0
 70
     8
 71
     3
 72
     8
 73
     4
 74
     0
 42
0.000000001
 43
0.0000000001
 40
0.0
 40
0.0
 40
0.0
 40
0.0
 40
0.0307860154359172
 40
0.0307860154359172
 40
0.0307860154359172
 40
0.0307860154359172
 10
-0.5948688128736883
 20
-31.78913199788777
 30
0.0
 10
-0.5116101666096006
 20
-31.74186490565795
 30
0.0
 10
-0.4314893065024018
 20
-31.69275376267695
 30
0.0
 10
-0.3579957330978454
 20
-31.64170098851557
 30
0.0
  0
SPLINE
  5
1B25
330
1B05
100
AcDbEntity
  8
0
100
AcDbSpline
210
0.0
220
0.0
230
1.0
 70
     8
 71
     3
 72
     8
 73
     4
 74
     0
 42
0.000000001
 43
0.0000000001
 40
0.0
 40
0.0
 40
0.0
 40
0.0
 40
0.3931438047510008
 40
0.3931438047510008
 40
0.3931438047510008
 40
0.3931438047510008
 10
-2.425
 20
-6.809374699126271
 30
0.0
 10
-2.425
 20
-6.85734563036153
 30
0.0
 10
-2.357103059221861
 20
-6.90531656159679
 30
0.0
 10
-2.233615422305568
 20
-6.95328749283205
 30
0.0
  0
SPLINE
  5
1B26
330
1B05
100
AcDbEntity
  8
0
100
AcDbSpline
210
0.0
220
0.0
230
1.0
 70
     8
 71
     3
 72
    20
 73
    16
 74
     0
 42
0.000000001
 43
0.0000000001
 40
2.748448848838792
 40
2.748448848838792
 40
2.748448848838792
 40
2.748448848838792
 40
3.251468151085609
 40
3.251468151085609
 40
3.251468151085609
 40
4.333789406213432
 40
4.333789406213432
 40
4.333789406213432
 40
5.415388919080976
 40
5.415388919080976
 40
5.415388919080976
 40
6.49628390602947
 40
6.49628390602947
 40
6.49628390602947
 40
6.676329111930587
 40
6.676329111930587
 40
6.676329111930587
 40
6.676329111930587
 10
2.232306776090838
 20
-7.815461905420494
 30
0.0
 10
2.388640612362698
 20
-7.876839711878295
 30
0.0
 10
2.454963000100305
 20
-7.938217518336094
 30
0.0
 10
2.410376662971585
 20
-7.999595324793894
 30
0.0
 10
2.314442490769519
 20
-8.131658854415274
 30
0.0
 10
1.709247861411122
 20
-8.263722384036654
 30
0.0
 10
0.8963274819195655
 20
-8.395785913658034
 30
0.0
 10
0.0839491956275463
 20
-8.527761377162336
 30
0.0
 10
-0.9007815193270429
 20
-8.659736840666639
 30
0.0
 10
-1.567784966682548
 20
-8.791712304170943
 30
0.0
 10
-2.234353945261794
 20
-8.923601802275287
 30
0.0
 10
-2.55493046085611
 20
-9.055491300379634
 30
0.0
 10
-2.370147195888344
 20
-9.187380798483978
 30
0.0
 10
-2.339367757191782
 20
-9.209349696600002
 30
0.0
 10
-2.294788385024999
 20
-9.231318594716025
 30
0.0
 10
-2.237975922157405
 20
-9.253287492832049
 30
0.0
  0
SPLINE
  5
1B27
330
1B05
100
AcDbEntity
  8
0
100
AcDbSpline
210
0.0
220
0.0
230
1.0
 70
     8
 71
     3
 72
    17
 73
    13
 74
     0
 42
0.000000001
 43
0.0000000001
 40
9.031634156018379
 40
9.031634156018379
 40
9.031634156018379
 40
9.031634156018379
 40
9.734912195184955
 40
9.734912195184955
 40
9.734912195184955
 40
10.81315902485812
 40
10.81315902485812
 40
10.81315902485812
 40
11.89078577535515
 40
11.89078577535515
 40
11.89078577535515
 40
12.95951441911017
 40
12.95951441911017
 40
12.95951441911017
 40
12.95951441911017
 10
2.23331900976288
 20
-10.11546190542049
 30
0.0
 10
2.447127624607734
 20
-10.20127504058486
 30
0.0
 10
2.482802928688652
 20
-10.28708817574921
 30
0.0
 10
2.309309583949809
 20
-10.37290131091357
 30
0.0
 10
2.043314289747623
 20
-10.50446768407223
 30
0.0
 10
1.297029745490634
 20
-10.63603405723089
 30
0.0
 10
0.4399078280358574
 20
-10.76760043038956
 30
0.0
 10
-0.4167211749601991
 20
-10.89909114223763
 30
0.0
 10
-1.347593580529585
 20
-11.03058185408571
 30
0.0
 10
-1.892327781785862
 20
-11.16207256593378
 30
0.0
 10
-2.432564040626946
 20
-11.29247754156653
 30
0.0
 10
-2.570277122557921
 20
-11.42288251719929
 30
0.0
 10
-2.239987183659231
 20
-11.55328749283205
 30
0.0
  0
SPLINE
  5
1B28
330
1B05
100
AcDbEntity
  8
0
100
AcDbSpline
210
0.0
220
0.0
230
1.0
 70
     8
 71
     3
 72
    17
 73
    13
 74
     0
 42
0.000000001
 43
0.0000000001
 40
15.31481946319796
 40
15.31481946319796
 40
15.31481946319796
 40
15.31481946319796
 40
16.19542226986648
 40
16.19542226986648
 40
16.19542226986648
 40
17.27019554042729
 40
17.27019554042729
 40
17.27019554042729
 40
18.34156925855193
 40
18.34156925855193
 40
18.34156925855193
 40
19.24269972628976
 40
19.24269972628976
 40
19.24269972628976
 40
19.24269972628976
 10
2.237106448342245
 20
-12.41546190542049
 30
0.0
 10
2.502989189714544
 20
-12.52291199409995
 30
0.0
 10
2.475954447868675
 20
-12.63036208277939
 30
0.0
 10
2.142550230718638
 20
-12.73781217145884
 30
0.0
 10
1.735631313164021
 20
-12.86895470513865
 30
0.0
 10
0.8895107791246525
 20
-13.00009723881846
 30
0.0
 10
0.020767577856012
 20
-13.13123977249827
 30
0.0
 10
-0.8452277526317214
 20
-13.26196749690429
 30
0.0
 10
-1.697532445429164
 20
-13.3926952213103
 30
0.0
 10
-2.118784588381361
 20
-13.52342294571632
 30
0.0
 10
-2.473098992582483
 20
-13.63337779475489
 30
0.0
 10
-2.508506901626837
 20
-13.74333264379347
 30
0.0
 10
-2.236879564592785
 20
-13.85328749283204
 30
0.0
  0
SPLINE
  5
1B29
330
1B05
100
AcDbEntity
  8
0
100
AcDbSpline
210
0.0
220
0.0
230
1.0
 70
     8
 71
     3
 72
    20
 73
    16
 74
     0
 42
0.000000001
 43
0.0000000001
 40
21.59800477037755
 40
21.59800477037755
 40
21.59800477037755
 40
21.59800477037755
 40
21.63157700169567
 40
21.63157700169567
 40
21.63157700169567
 40
22.72424794677702
 40
22.72424794677702
 40
22.72424794677702
 40
23.81504816169885
 40
23.81504816169885
 40
23.81504816169885
 40
24.90405271885951
 40
24.90405271885951
 40
24.90405271885951
 40
25.52588503346935
 40
25.52588503346935
 40
25.52588503346935
 40
25.52588503346935
 10
2.239908019301112
 20
-14.71546190542049
 30
0.0
 10
2.250360184256082
 20
-14.71955834845358
 30
0.0
 10
2.260366600077779
 20
-14.72365479148668
 30
0.0
 10
2.269915578948713
 20
-14.72775123451977
 30
0.0
 10
2.580704923529291
 20
-14.86107762078309
 30
0.0
 10
2.393071659645937
 20
-14.99440400704641
 30
0.0
 10
1.802027078035244
 20
-15.12773039330973
 30
0.0
 10
1.211994406670187
 20
-15.26082851534312
 30
0.0
 10
0.2463950903266284
 20
-15.39392663737651
 30
0.0
 10
-0.6072431589833523
 20
-15.5270247594099
 30
0.0
 10
-1.459476162743652
 20
-15.65990377745655
 30
0.0
 10
-2.162304521720673
 20
-15.79278279550321
 30
0.0
 10
-2.361864028507385
 20
-15.92566181354986
 30
0.0
 10
-2.475814469937237
 20
-16.00153703997726
 30
0.0
 10
-2.422834067411575
 20
-16.07741226640465
 30
0.0
 10
-2.232146302759268
 20
-16.15328749283204
 30
0.0
  0
SPLINE
  5
1B2A
330
1B05
100
AcDbEntity
  8
0
100
AcDbSpline
210
0.0
220
0.0
230
1.0
 70
     8
 71
     3
 72
    20
 73
    16
 74
     0
 42
0.000000001
 43
0.0000000001
 40
27.88119007755714
 40
27.88119007755714
 40
27.88119007755714
 40
27.88119007755714
 40
28.16102515708324
 40
28.16102515708324
 40
28.16102515708324
 40
29.24357422615022
 40
29.24357422615022
 40
29.24357422615022
 40
30.32468584390667
 40
30.32468584390667
 40
30.32468584390667
 40
31.40442863178461
 40
31.40442863178461
 40
31.40442863178461
 40
31.80907034064893
 40
31.80907034064893
 40
31.80907034064893
 40
31.80907034064893
 10
2.23586461930965
 20
-17.0154619054205
 30
0.0
 10
2.324265418865232
 20
-17.04960704314093
 30
0.0
 10
2.383873894624711
 20
-17.08375218086137
 30
0.0
 10
2.409449521734938
 20
-17.11789731858181
 30
0.0
 10
2.508389480820365
 20
-17.24998864578432
 30
0.0
 10
2.093819458301938
 20
-17.38207997298683
 30
0.0
 10
1.372370543939918
 20
-17.51417130018935
 30
0.0
 10
0.6518795978742675
 20
-17.64608723132269
 30
0.0
 10
-0.3435357472915189
 20
-17.77800316245604
 30
0.0
 10
-1.11885857720291
 20
-17.90991909358938
 30
0.0
 10
-1.893199746166772
 20
-18.04166800175764
 30
0.0
 10
-2.414804648471176
 20
-18.1734169099259
 30
0.0
 10
-2.424839707084643
 20
-18.30516581809416
 30
0.0
 10
-2.428600420572609
 20
-18.35453970967345
 30
0.0
 10
-2.360466409241486
 20
-18.40391360125275
 30
0.0
 10
-2.233534002773064
 20
-18.45328749283205
 30
0.0
  0
SPLINE
  5
1B2B
330
1B05
100
AcDbEntity
  8
0
100
AcDbSpline
210
0.0
220
0.0
230
1.0
 70
     8
 71
     3
 72
    20
 73
    16
 74
     0
 42
0.000000001
 43
0.0000000001
 40
34.16437538473672
 40
34.16437538473672
 40
34.16437538473672
 40
34.16437538473672
 40
34.63611733736399
 40
34.63611733736399
 40
34.63611733736399
 40
35.71105417570329
 40
35.71105417570329
 40
35.71105417570329
 40
36.81705548416099
 40
36.81705548416099
 40
36.81705548416099
 40
37.91223820258524
 40
37.91223820258524
 40
37.91223820258524
 40
38.09225564782853
 40
38.09225564782853
 40
38.09225564782853
 40
38.09225564782853
 10
2.23272948777135
 20
-19.31546190542049
 30
0.0
 10
2.379767438426292
 20
-19.37302328753257
 30
0.0
 10
2.447454001152253
 20
-19.43058466964465
 30
0.0
 10
2.417513431838896
 20
-19.48814605175673
 30
0.0
 10
2.349289224225954
 20
-19.61930854377891
 30
0.0
 10
1.77710831935183
 20
-19.75047103580109
 30
0.0
 10
0.9827513469555814
 20
-19.88163352782326
 30
0.0
 10
0.1654383481657532
 20
-20.01658646889207
 30
0.0
 10
-0.8510207267412983
 20
-20.15153940996089
 30
0.0
 10
-1.541244839862747
 20
-20.2864923510297
 30
0.0
 10
-2.224717377146121
 20
-20.42012522083633
 30
0.0
 10
-2.557382786442656
 20
-20.55375809064296
 30
0.0
 10
-2.370132957592929
 20
-20.68739096044959
 30
0.0
 10
-2.339354316508937
 20
-20.70935647124374
 30
0.0
 10
-2.294763414297483
 20
-20.7313219820379
 30
0.0
 10
-2.237934712309362
 20
-20.75328749283205
 30
0.0
  0
SPLINE
  5
1B2C
330
1B05
100
AcDbEntity
  8
0
100
AcDbSpline
210
0.0
220
0.0
230
1.0
 70
     8
 71
     3
 72
    17
 73
    13
 74
     0
 42
0.000000001
 43
0.0000000001
 40
40.4475606919163
 40
40.4475606919163
 40
40.4475606919163
 40
40.4475606919163
 40
41.1757999691115
 40
41.1757999691115
 40
41.1757999691115
 40
42.25730197057949
 40
42.25730197057949
 40
42.25730197057949
 40
43.33609488781122
 40
43.33609488781122
 40
43.33609488781122
 40
44.3754409550081
 40
44.3754409550081
 40
44.3754409550081
 40
44.3754409550081
 10
2.233527918955155
 20
-21.61546190542049
 30
0.0
 10
2.45445175225905
 20
-21.70432078063861
 30
0.0
 10
2.483705235938005
 20
-21.79317965585673
 30
0.0
 10
2.290118873560887
 20
-21.88203853107485
 30
0.0
 10
2.002625401395906
 20
-22.01400209635619
 30
0.0
 10
1.236293605494924
 20
-22.14596566163754
 30
0.0
 10
0.3724521300635106
 20
-22.27792922691889
 30
0.0
 10
-0.4892254849954273
 20
-22.40956223302053
 30
0.0
 10
-1.410965717811055
 20
-22.54119523912216
 30
0.0
 10
-1.936062748874893
 20
-22.67282824522379
 30
0.0
 10
-2.441959223921673
 20
-22.79964799442654
 30
0.0
 10
-2.559061829676876
 20
-22.92646774362929
 30
0.0
 10
-2.239848818721129
 20
-23.05328749283205
 30
0.0
  0
SPLINE
  5
1B2D
330
1B05
100
AcDbEntity
  8
0
100
AcDbSpline
210
0.0
220
0.0
230
1.0
 70
     8
 71
     3
 72
    17
 73
    13
 74
     0
 42
0.000000001
 43
0.0000000001
 40
46.73074599909589
 40
46.73074599909589
 40
46.73074599909589
 40
46.73074599909589
 40
47.67626025744884
 40
47.67626025744884
 40
47.67626025744884
 40
48.7558071619606
 40
48.7558071619606
 40
48.7558071619606
 40
49.83057968848244
 40
49.83057968848244
 40
49.83057968848244
 40
50.6586262621877
 40
50.6586262621877
 40
50.6586262621877
 40
50.6586262621877
 10
2.238269681587996
 20
-23.9154619054205
 30
0.0
 10
2.524427911746754
 20
-24.0308324108724
 30
0.0
 10
2.465389963527583
 20
-24.14620291632429
 30
0.0
 10
2.064361571352895
 20
-24.26157342177619
 30
0.0
 10
1.606484859744485
 20
-24.39329842849319
 30
0.0
 10
0.7228780382453781
 20
-24.52502343521019
 30
0.0
 10
-0.1481262328876152
 20
-24.65674844192717
 30
0.0
 10
-1.015278421629521
 20
-24.78789088482025
 30
0.0
 10
-1.833225217833957
 20
-24.91903332771333
 30
0.0
 10
-2.199259204552431
 20
-25.05017577060641
 30
0.0
 10
-2.481266030259792
 20
-25.15121301134829
 30
0.0
 10
-2.485279161055327
 20
-25.25225025209017
 30
0.0
 10
-2.235491858897345
 20
-25.35328749283205
 30
0.0
  0
SPLINE
  5
1B2E
330
1B05
100
AcDbEntity
  8
0
100
AcDbSpline
210
0.0
220
0.0
230
1.0
 70
     8
 71
     3
 72
    11
 73
     7
 74
     0
 42
0.000000001
 43
0.0000000001
 40
53.01393130627548
 40
53.01393130627548
 40
53.01393130627548
 40
53.01393130627548
 40
53.07330182077515
 40
53.07330182077515
 40
53.07330182077515
 40
53.40707511102649
 40
53.40707511102649
 40
53.40707511102649
 40
53.40707511102649
 10
2.239736690060906
 20
-26.21546190542049
 30
0.0
 10
2.258283030932514
 20
-26.22270622374383
 30
0.0
 10
2.275448885175631
 20
-26.22995054206718
 30
0.0
 10
2.291171290490553
 20
-26.23719486039052
 30
0.0
 10
2.379560602876516
 20
-26.27792147330243
 30
0.0
 10
2.425
 20
-26.31864808621435
 30
0.0
 10
2.425
 20
-26.35937469912627
 30
0.0
  0
SPLINE
  5
1B2F
330
1B05
100
AcDbEntity
  8
0
100
AcDbSpline
210
0.0
220
0.0
230
1.0
 70
     8
 71
     3
 72
    14
 73
    10
 74
     0
 42
0.000000001
 43
0.0000000001
 40
-49.69719167734754
 40
-49.69719167734754
 40
-49.69719167734754
 40
-49.69719167734754
 40
-48.58010170388364
 40
-48.58010170388364
 40
-48.58010170388364
 40
-47.37563600112831
 40
-47.37563600112831
 40
-47.37563600112831
 40
-47.1238898038469
 40
-47.1238898038469
 40
-47.1238898038469
 40
-47.1238898038469
 10
-1.327098778520851
 20
-24.69197354044111
 30
0.0
 10
-1.008811777113029
 20
-24.5556675738888
 30
0.0
 10
-0.402550562384092
 20
-24.4193616073365
 30
0.0
 10
0.180075814074705
 20
-24.28305564078421
 30
0.0
 10
0.8082736357678117
 20
-24.13608819349428
 30
0.0
 10
1.367840148807167
 20
-23.98912074620435
 30
0.0
 10
1.525354312550098
 20
-23.84215329891443
 30
0.0
 10
1.558276455247505
 20
-23.81143553260962
 30
0.0
 10
1.573186867244358
 20
-23.78071776630481
 30
0.0
 10
1.571470508811618
 20
-23.75
 30
0.0
  0
SPLINE
  5
1B30
330
1B05
100
AcDbEntity
  8
0
100
AcDbSpline
210
0.0
220
0.0
230
1.0
 70
     8
 71
     3
 72
    14
 73
    10
 74
     0
 42
0.000000001
 43
0.0000000001
 40
-43.41400637016795
 40
-43.41400637016795
 40
-43.41400637016795
 40
-43.41400637016795
 40
-42.5661718137502
 40
-42.5661718137502
 40
-42.5661718137502
 40
-41.36578886945975
 40
-41.36578886945975
 40
-41.36578886945975
 40
-40.84070449666731
 40
-40.84070449666731
 40
-40.84070449666731
 40
-40.84070449666731
 10
-1.323304366740449
 20
-22.3919735404411
 30
0.0
 10
-1.080103171504628
 20
-22.28852179399796
 30
0.0
 10
-0.6824361667873963
 20
-22.18507004755482
 30
0.0
 10
-0.2426366652446947
 20
-22.08161830111168
 30
0.0
 10
0.3800412104836611
 20
-21.93514902706829
 30
0.0
 10
1.046907629021942
 20
-21.7886797530249
 30
0.0
 10
1.362818598438398
 20
-21.64221047898152
 30
0.0
 10
1.501007760508128
 20
-21.57814031932101
 30
0.0
 10
1.568148507063766
 20
-21.5140701596605
 30
0.0
 10
1.566977501423956
 20
-21.45
 30
0.0
  0
SPLINE
  5
1B31
330
1B05
100
AcDbEntity
  8
0
100
AcDbSpline
210
0.0
220
0.0
230
1.0
 70
     8
 71
     3
 72
    14
 73
    10
 74
     0
 42
0.000000001
 43
0.0000000001
 40
-37.13082106298837
 40
-37.13082106298837
 40
-37.13082106298837
 40
-37.13082106298837
 40
-36.44831266799515
 40
-36.44831266799515
 40
-36.44831266799515
 40
-35.2213154326862
 40
-35.2213154326862
 40
-35.2213154326862
 40
-34.55751918948773
 40
-34.55751918948773
 40
-34.55751918948773
 40
-34.55751918948773
 10
-1.320189665347457
 20
-20.0919735404411
 30
0.0
 10
-1.126387265025328
 20
-20.00869469212136
 30
0.0
 10
-0.8355654950648998
 20
-19.92541584380161
 30
0.0
 10
-0.4954380746481952
 20
-19.84213699548186
 30
0.0
 10
0.1160348501767179
 20
-19.69242027785957
 30
0.0
 10
0.8436802454047334
 20
-19.54270356023728
 30
0.0
 10
1.240562931211627
 20
-19.39298684261499
 30
0.0
 10
1.45527346865045
 20
-19.31199122840999
 30
0.0
 10
1.565074965940643
 20
-19.230995614205
 30
0.0
 10
1.566149204239677
 20
-19.15
 30
0.0
  0
SPLINE
  5
1B32
330
1B05
100
AcDbEntity
  8
0
100
AcDbSpline
210
0.0
220
0.0
230
1.0
 70
     8
 71
     3
 72
    14
 73
    10
 74
     0
 42
0.000000001
 43
0.0000000001
 40
-30.84763575580878
 40
-30.84763575580878
 40
-30.84763575580878
 40
-30.84763575580878
 40
-30.33953213823947
 40
-30.33953213823947
 40
-30.33953213823947
 40
-29.1250954435422
 40
-29.1250954435422
 40
-29.1250954435422
 40
-28.27433388230814
 40
-28.27433388230814
 40
-28.27433388230814
 40
-28.27433388230814
 10
-1.320115601869058
 20
-17.7919735404411
 30
0.0
 10
-1.178069237320038
 20
-17.72997535198118
 30
0.0
 10
-0.9821570884097496
 20
-17.66797716352126
 30
0.0
 10
-0.7473458202515349
 20
-17.60597897506134
 30
0.0
 10
-0.1861149796920518
 20
-17.45779487940251
 30
0.0
 10
0.5592508955041803
 20
-17.30961078374368
 30
0.0
 10
1.038572023420256
 20
-17.16142668808485
 30
0.0
 10
1.374355677602415
 20
-17.05761779205657
 30
0.0
 10
1.563763355793353
 20
-16.95380889602828
 30
0.0
 10
1.569063889020344
 20
-16.85
 30
0.0
  0
SPLINE
  5
1B33
330
1B05
100
AcDbEntity
  8
0
100
AcDbSpline
210
0.0
220
0.0
230
1.0
 70
     8
 71
     3
 72
    14
 73
    10
 74
     0
 42
0.000000001
 43
0.0000000001
 40
-24.5644504486292
 40
-24.5644504486292
 40
-24.5644504486292
 40
-24.5644504486292
 40
-24.28828452243574
 40
-24.28828452243574
 40
-24.28828452243574
 40
-23.08382138548927
 40
-23.08382138548927
 40
-23.08382138548927
 40
-21.99114857512855
 40
-21.99114857512855
 40
-21.99114857512855
 40
-21.99114857512855
 10
-1.323422561739827
 20
-15.4919735404411
 30
0.0
 10
-1.24730379293033
 20
-15.45827610836955
 30
0.0
 10
-1.154410517562986
 20
-15.424578676298
 30
0.0
 10
-1.046016645213959
 20
-15.39088124422645
 30
0.0
 10
-0.573270331739259
 20
-15.24391411001342
 30
0.0
 10
0.1632473315075993
 20
-15.09694697580038
 30
0.0
 10
0.7246794430838297
 20
-14.94997984158734
 30
0.0
 10
1.234003127939797
 20
-14.81665322772489
 30
0.0
 10
1.569088585641889
 20
-14.68332661386244
 30
0.0
 10
1.574146353800102
 20
-14.55
 30
0.0
  0
SPLINE
  5
1B34
330
1B05
100
AcDbEntity
  8
0
100
AcDbSpline
210
0.0
220
0.0
230
1.0
 70
     8
 71
     3
 72
    17
 73
    13
 74
     0
 42
0.000000001
 43
0.0000000001
 40
-18.28126514144961
 40
-18.28126514144961
 40
-18.28126514144961
 40
-18.28126514144961
 40
-18.24735319893106
 40
-18.24735319893106
 40
-18.24735319893106
 40
-17.02025059097029
 40
-17.02025059097029
 40
-17.02025059097029
 40
-15.79851284431317
 40
-15.79851284431317
 40
-15.79851284431317
 40
-15.70796326794896
 40
-15.70796326794896
 40
-15.70796326794896
 40
-15.70796326794896
 10
-1.327340060250084
 20
-13.1919735404411
 30
0.0
 10
-1.317826103182008
 20
-13.18783564625848
 30
0.0
 10
-1.308026641300794
 20
-13.18369775207586
 30
0.0
 10
-1.297941534092796
 20
-13.17955985789325
 30
0.0
 10
-0.933012236700549
 20
-13.02983028282751
 30
0.0
 10
-0.2201905395629789
 20
-12.88010070776178
 30
0.0
 10
0.4026320280067247
 20
-12.73037113269605
 30
0.0
 10
1.022731631196664
 20
-12.58129617151352
 30
0.0
 10
1.510547242152002
 20
-12.43222121033098
 30
0.0
 10
1.568547520284642
 20
-12.28314624914845
 30
0.0
 10
1.572846233841039
 20
-12.2720974994323
 30
0.0
 10
1.574763576322126
 20
-12.26104874971615
 30
0.0
 10
1.574392497601002
 20
-12.25
 30
0.0
  0
SPLINE
  5
1B35
330
1B05
100
AcDbEntity
  8
0
100
AcDbSpline
210
0.0
220
0.0
230
1.0
 70
     8
 71
     3
 72
    14
 73
    10
 74
     0
 42
0.000000001
 43
0.0000000001
 40
-11.99807983427002
 40
-11.99807983427002
 40
-11.99807983427002
 40
-11.99807983427002
 40
-10.95666232854242
 40
-10.95666232854242
 40
-10.95666232854242
 40
-9.755470676102675
 40
-9.755470676102675
 40
-9.755470676102675
 40
-9.424777960769382
 40
-9.424777960769382
 40
-9.424777960769382
 40
-9.424777960769382
 10
-1.326326849586365
 20
-10.8919735404411
 30
0.0
 10
-1.028157307650593
 20
-10.76490103681588
 30
0.0
 10
-0.4850594483473103
 20
-10.63782853319066
 30
0.0
 10
0.0612708706092692
 20
-10.51075602956545
 30
0.0
 10
0.6914191204669386
 20
-10.36418807793246
 30
0.0
 10
1.284899735229752
 20
-10.21762012629947
 30
0.0
 10
1.48966279401016
 20
-10.07105217466648
 30
0.0
 10
1.546034857344525
 20
-10.03070144977765
 30
0.0
 10
1.571774004999508
 20
-9.990350724888827
 30
0.0
 10
1.569456592357843
 20
-9.950000000000001
 30
0.0
  0
SPLINE
  5
1B36
330
1B05
100
AcDbEntity
  8
0
100
AcDbSpline
210
0.0
220
0.0
230
1.0
 70
     8
 71
     3
 72
    14
 73
    10
 74
     0
 42
0.000000001
 43
0.0000000001
 40
-5.714894527090436
 40
-5.714894527090436
 40
-5.714894527090436
 40
-5.714894527090436
 40
-4.883616654361672
 40
-4.883616654361672
 40
-4.883616654361672
 40
-3.650423654927962
 40
-3.650423654927962
 40
-3.650423654927962
 40
-3.141592653589789
 40
-3.141592653589789
 40
-3.141592653589789
 40
-3.141592653589789
 10
-1.322940327796422
 20
-8.591973540441104
 30
0.0
 10
-1.08460435578831
 20
-8.490542020503202
 30
0.0
 10
-0.6984065172658472
 20
-8.389110500565299
 30
0.0
 10
-0.2683677119115836
 20
-8.287678980627397
 30
0.0
 10
0.3695908596390761
 20
-8.137206263365314
 30
0.0
 10
1.060072422283392
 20
-7.986733546103229
 30
0.0
 10
1.375470478834587
 20
-7.836260828841146
 30
0.0
 10
1.505607699049714
 20
-7.774173885894095
 30
0.0
 10
1.568310869936915
 20
-7.712086942947045
 30
0.0
 10
1.566819645011825
 20
-7.649999999999996
 30
0.0
  0
SPLINE
  5
1B37
330
1B05
100
AcDbEntity
  8
0
100
AcDbSpline
210
0.0
220
0.0
230
1.0
 70
     8
 71
     3
 72
    14
 73
    10
 74
     0
 42
0.000000001
 43
0.0000000001
 40
3.709883433678942
 40
3.709883433678942
 40
3.709883433678942
 40
3.709883433678942
 40
4.826973407142861
 40
4.826973407142861
 40
4.826973407142861
 40
6.031439109898187
 40
6.031439109898187
 40
6.031439109898187
 40
6.283185307179585
 40
6.283185307179585
 40
6.283185307179585
 40
6.283185307179585
 10
1.327098778520855
 20
-8.476775857811439
 30
0.0
 10
1.00881177711303
 20
-8.613081824363742
 30
0.0
 10
0.4025505623840815
 20
-8.749387790916046
 30
0.0
 10
-0.180075814074722
 20
-8.885693757468347
 30
0.0
 10
-0.8082736357678266
 20
-9.032661204758271
 30
0.0
 10
-1.367840148807175
 20
-9.179628652048197
 30
0.0
 10
-1.525354312550102
 20
-9.326596099338122
 30
0.0
 10
-1.558276455247507
 20
-9.357313865642929
 30
0.0
 10
-1.573186867244358
 20
-9.388031631947734
 30
0.0
 10
-1.571470508811618
 20
-9.418749398252542
 30
0.0
  0
SPLINE
  5
1B38
330
1B05
100
AcDbEntity
  8
0
100
AcDbSpline
210
0.0
220
0.0
230
1.0
 70
     8
 71
     3
 72
    14
 73
    10
 74
     0
 42
0.000000001
 43
0.0000000001
 40
9.993068740858529
 40
9.993068740858529
 40
9.993068740858529
 40
9.993068740858529
 40
10.84090329727629
 40
10.84090329727629
 40
10.84090329727629
 40
12.04128624156673
 40
12.04128624156673
 40
12.04128624156673
 40
12.56637061435917
 40
12.56637061435917
 40
12.56637061435917
 40
12.56637061435917
 10
1.323304366740451
 20
-10.77677585781144
 30
0.0
 10
1.080103171504629
 20
-10.88022760425458
 30
0.0
 10
0.6824361667873914
 20
-10.98367935069772
 30
0.0
 10
0.2426366652446849
 20
-11.08713109714086
 30
0.0
 10
-0.3800412104836718
 20
-11.23360037118425
 30
0.0
 10
-1.046907629021951
 20
-11.38006964522764
 30
0.0
 10
-1.362818598438404
 20
-11.52653891927103
 30
0.0
 10
-1.50100776050813
 20
-11.59060907893153
 30
0.0
 10
-1.568148507063766
 20
-11.65467923859204
 30
0.0
 10
-1.566977501423956
 20
-11.71874939825254
 30
0.0
  0
SPLINE
  5
1B39
330
1B05
100
AcDbEntity
  8
0
100
AcDbSpline
210
0.0
220
0.0
230
1.0
 70
     8
 71
     3
 72
    14
 73
    10
 74
     0
 42
0.000000001
 43
0.0000000001
 40
16.27625404803811
 40
16.27625404803811
 40
16.27625404803811
 40
16.27625404803811
 40
16.95876244303135
 40
16.95876244303135
 40
16.95876244303135
 40
18.1857596783403
 40
18.1857596783403
 40
18.1857596783403
 40
18.84955592153876
 40
18.84955592153876
 40
18.84955592153876
 40
18.84955592153876
 10
1.32018966534746
 20
-13.07677585781144
 30
0.0
 10
1.126387265025328
 20
-13.16005470613119
 30
0.0
 10
0.835565495064894
 20
-13.24333355445093
 30
0.0
 10
0.4954380746481832
 20
-13.32661240277068
 30
0.0
 10
-0.1160348501767333
 20
-13.47632912039297
 30
0.0
 10
-0.8436802454047498
 20
-13.62604583801526
 30
0.0
 10
-1.240562931211639
 20
-13.77576255563755
 30
0.0
 10
-1.455273468650455
 20
-13.85675816984255
 30
0.0
 10
-1.565074965940644
 20
-13.93775378404754
 30
0.0
 10
-1.566149204239677
 20
-14.01874939825254
 30
0.0
  0
SPLINE
  5
1B3A
330
1B05
100
AcDbEntity
  8
0
100
AcDbSpline
210
0.0
220
0.0
230
1.0
 70
     8
 71
     3
 72
    14
 73
    10
 74
     0
 42
0.000000001
 43
0.0000000001
 40
22.5594393552177
 40
22.5594393552177
 40
22.5594393552177
 40
22.5594393552177
 40
23.06754297278702
 40
23.06754297278702
 40
23.06754297278702
 40
24.2819796674843
 40
24.2819796674843
 40
24.2819796674843
 40
25.13274122871834
 40
25.13274122871834
 40
25.13274122871834
 40
25.13274122871834
 10
1.32011560186906
 20
-15.37677585781144
 30
0.0
 10
1.178069237320037
 20
-15.43877404627136
 30
0.0
 10
0.9821570884097418
 20
-15.50077223473128
 30
0.0
 10
0.7473458202515188
 20
-15.56277042319121
 30
0.0
 10
0.1861149796920321
 20
-15.71095451885004
 30
0.0
 10
-0.5592508955041993
 20
-15.85913861450887
 30
0.0
 10
-1.03857202342027
 20
-16.00732271016769
 30
0.0
 10
-1.37435567760242
 20
-16.11113160619598
 30
0.0
 10
-1.563763355793352
 20
-16.21494050222426
 30
0.0
 10
-1.569063889020344
 20
-16.31874939825254
 30
0.0
  0
SPLINE
  5
1B3B
330
1B05
100
AcDbEntity
  8
0
100
AcDbSpline
210
0.0
220
0.0
230
1.0
 70
     8
 71
     3
 72
    14
 73
    10
 74
     0
 42
0.000000001
 43
0.0000000001
 40
28.84262466239729
 40
28.84262466239729
 40
28.84262466239729
 40
28.84262466239729
 40
29.11879058859076
 40
29.11879058859076
 40
29.11879058859076
 40
30.32325372553723
 40
30.32325372553723
 40
30.32325372553723
 40
31.41592653589794
 40
31.41592653589794
 40
31.41592653589794
 40
31.41592653589794
 10
1.32342256173983
 20
-17.67677585781144
 30
0.0
 10
1.24730379293033
 20
-17.71047328988299
 30
0.0
 10
1.154410517562982
 20
-17.74417072195454
 30
0.0
 10
1.04601664521395
 20
-17.77786815402609
 30
0.0
 10
0.5732703317392458
 20
-17.92483528823913
 30
0.0
 10
-0.1632473315076131
 20
-18.07180242245216
 30
0.0
 10
-0.7246794430838412
 20
-18.21876955666519
 30
0.0
 10
-1.234003127939801
 20
-18.35209617052764
 30
0.0
 10
-1.569088585641887
 20
-18.48542278439009
 30
0.0
 10
-1.574146353800102
 20
-18.61874939825254
 30
0.0
  0
SPLINE
  5
1B3C
330
1B05
100
AcDbEntity
  8
0
100
AcDbSpline
210
0.0
220
0.0
230
1.0
 70
     8
 71
     3
 72
    17
 73
    13
 74
     0
 42
0.000000001
 43
0.0000000001
 40
35.12580996957688
 40
35.12580996957688
 40
35.12580996957688
 40
35.12580996957688
 40
35.15972191209543
 40
35.15972191209543
 40
35.15972191209543
 40
36.3868245200562
 40
36.3868245200562
 40
36.3868245200562
 40
37.60856226671331
 40
37.60856226671331
 40
37.60856226671331
 40
37.69911184307752
 40
37.69911184307752
 40
37.69911184307752
 40
37.69911184307752
 10
1.327340060250083
 20
-19.97677585781144
 30
0.0
 10
1.317826103182007
 20
-19.98091375199406
 30
0.0
 10
1.308026641300792
 20
-19.98505164617668
 30
0.0
 10
1.297941534092792
 20
-19.98918954035929
 30
0.0
 10
0.9330122367005428
 20
-20.13891911542503
 30
0.0
 10
0.220190539562971
 20
-20.28864869049076
 30
0.0
 10
-0.4026320280067318
 20
-20.43837826555649
 30
0.0
 10
-1.02273163119667
 20
-20.58745322673902
 30
0.0
 10
-1.510547242152004
 20
-20.73652818792156
 30
0.0
 10
-1.568547520284642
 20
-20.88560314910409
 30
0.0
 10
-1.572846233841039
 20
-20.89665189882024
 30
0.0
 10
-1.574763576322126
 20
-20.90770064853639
 30
0.0
 10
-1.574392497601002
 20
-20.91874939825254
 30
0.0
  0
SPLINE
  5
1B3D
330
1B05
100
AcDbEntity
  8
0
100
AcDbSpline
210
0.0
220
0.0
230
1.0
 70
     8
 71
     3
 72
    14
 73
    10
 74
     0
 42
0.000000001
 43
0.0000000001
 40
41.40899527675646
 40
41.40899527675646
 40
41.40899527675646
 40
41.40899527675646
 40
42.45041278248407
 40
42.45041278248407
 40
42.45041278248407
 40
43.6516044349238
 40
43.6516044349238
 40
43.6516044349238
 40
43.9822971502571
 40
43.9822971502571
 40
43.9822971502571
 40
43.9822971502571
 10
1.326326849586364
 20
-22.27677585781144
 30
0.0
 10
1.028157307650591
 20
-22.40384836143666
 30
0.0
 10
0.4850594483473089
 20
-22.53092086506187
 30
0.0
 10
-0.0612708706092709
 20
-22.6579933686871
 30
0.0
 10
-0.6914191204669407
 20
-22.80456132032008
 30
0.0
 10
-1.284899735229753
 20
-22.95112927195307
 30
0.0
 10
-1.489662794010161
 20
-23.09769722358606
 30
0.0
 10
-1.546034857344525
 20
-23.13804794847488
 30
0.0
 10
-1.571774004999508
 20
-23.17839867336371
 30
0.0
 10
-1.569456592357843
 20
-23.21874939825254
 30
0.0
  0
SPLINE
  5
1B3E
330
1B05
100
AcDbEntity
  8
0
100
AcDbSpline
210
0.0
220
0.0
230
1.0
 70
     8
 71
     3
 72
    14
 73
    10
 74
     0
 42
0.000000001
 43
0.0000000001
 40
47.69218058393605
 40
47.69218058393605
 40
47.69218058393605
 40
47.69218058393605
 40
48.52345845666481
 40
48.52345845666481
 40
48.52345845666481
 40
49.75665145609852
 40
49.75665145609852
 40
49.75665145609852
 40
50.26548245743668
 40
50.26548245743668
 40
50.26548245743668
 40
50.26548245743668
 10
1.322940327796422
 20
-24.57677585781145
 30
0.0
 10
1.08460435578831
 20
-24.67820737774935
 30
0.0
 10
0.6984065172658474
 20
-24.77963889768724
 30
0.0
 10
0.2683677119115849
 20
-24.88107041762515
 30
0.0
 10
-0.3695908596390758
 20
-25.03154313488723
 30
0.0
 10
-1.060072422283393
 20
-25.18201585214932
 30
0.0
 10
-1.375470478834588
 20
-25.3324885694114
 30
0.0
 10
-1.505607699049711
 20
-25.39457551235845
 30
0.0
 10
-1.568310869936913
 20
-25.45666245530549
 30
0.0
 10
-1.566819645011825
 20
-25.51874939825254
 30
0.0
  0
SPLINE
  5
1B3F
330
1B05
100
AcDbEntity
  8
0
100
AcDbSpline
210
0.0
220
0.0
230
1.0
 70
     8
 71
     3
 72
     8
 73
     4
 74
     0
 42
0.000000001
 43
0.0000000001
 40
0.0
 40
0.0
 40
0.0
 40
0.0
 40
0.0989373166977239
 40
0.0989373166977239
 40
0.0989373166977239
 40
0.0989373166977239
 10
-2.239994938551684
 20
-8.965461905420495
 30
0.0
 10
-1.933537609176261
 20
-8.84470816651209
 30
0.0
 10
-1.627619665622613
 20
-8.721603170588135
 30
0.0
 10
-1.327444799274057
 20
-8.591973540441104
 30
0.0
  0
SPLINE
  5
1B40
330
1B05
100
AcDbEntity
  8
0
100
AcDbSpline
210
0.0
220
0.0
230
1.0
 70
     8
 71
     3
 72
     8
 73
     4
 74
     0
 42
0.000000001
 43
0.0000000001
 40
0.0
 40
0.0
 40
0.0
 40
0.0
 40
0.0989373166977238
 40
0.0989373166977238
 40
0.0989373166977238
 40
0.0989373166977238
 10
-2.239994938551684
 20
-11.26546190542049
 30
0.0
 10
-1.933537609176261
 20
-11.14470816651209
 30
0.0
 10
-1.627619665622613
 20
-11.02160317058813
 30
0.0
 10
-1.327444799274057
 20
-10.8919735404411
 30
0.0
  0
SPLINE
  5
1B41
330
1B05
100
AcDbEntity
  8
0
100
AcDbSpline
210
0.0
220
0.0
230
1.0
 70
     8
 71
     3
 72
     8
 73
     4
 74
     0
 42
0.000000001
 43
0.0000000001
 40
0.0
 40
0.0
 40
0.0
 40
0.0
 40
0.0989373166977241
 40
0.0989373166977241
 40
0.0989373166977241
 40
0.0989373166977241
 10
-2.239994938551685
 20
-13.56546190542049
 30
0.0
 10
-1.933537609176261
 20
-13.44470816651209
 30
0.0
 10
-1.627619665622612
 20
-13.32160317058814
 30
0.0
 10
-1.327444799274055
 20
-13.1919735404411
 30
0.0
  0
SPLINE
  5
1B42
330
1B05
100
AcDbEntity
  8
0
100
AcDbSpline
210
0.0
220
0.0
230
1.0
 70
     8
 71
     3
 72
     8
 73
     4
 74
     0
 42
0.000000001
 43
0.0000000001
 40
0.0
 40
0.0
 40
0.0
 40
0.0
 40
0.098937316697724
 40
0.098937316697724
 40
0.098937316697724
 40
0.098937316697724
 10
-2.239994938551685
 20
-15.86546190542049
 30
0.0
 10
-1.933537609176261
 20
-15.74470816651209
 30
0.0
 10
-1.627619665622612
 20
-15.62160317058813
 30
0.0
 10
-1.327444799274055
 20
-15.4919735404411
 30
0.0
  0
SPLINE
  5
1B43
330
1B05
100
AcDbEntity
  8
0
100
AcDbSpline
210
0.0
220
0.0
230
1.0
 70
     8
 71
     3
 72
     8
 73
     4
 74
     0
 42
0.000000001
 43
0.0000000001
 40
0.0
 40
0.0
 40
0.0
 40
0.0
 40
0.0989373166977241
 40
0.0989373166977241
 40
0.0989373166977241
 40
0.0989373166977241
 10
-2.239994938551685
 20
-18.16546190542049
 30
0.0
 10
-1.933537609176261
 20
-18.04470816651209
 30
0.0
 10
-1.627619665622612
 20
-17.92160317058813
 30
0.0
 10
-1.327444799274055
 20
-17.7919735404411
 30
0.0
  0
SPLINE
  5
1B44
330
1B05
100
AcDbEntity
  8
0
100
AcDbSpline
210
0.0
220
0.0
230
1.0
 70
     8
 71
     3
 72
     8
 73
     4
 74
     0
 42
0.000000001
 43
0.0000000001
 40
0.0
 40
0.0
 40
0.0
 40
0.0
 40
0.0989373166977242
 40
0.0989373166977242
 40
0.0989373166977242
 40
0.0989373166977242
 10
-2.239994938551684
 20
-20.46546190542049
 30
0.0
 10
-1.93353760917626
 20
-20.34470816651209
 30
0.0
 10
-1.627619665622612
 20
-20.22160317058813
 30
0.0
 10
-1.327444799274055
 20
-20.0919735404411
 30
0.0
  0
SPLINE
  5
1B45
330
1B05
100
AcDbEntity
  8
0
100
AcDbSpline
210
0.0
220
0.0
230
1.0
 70
     8
 71
     3
 72
     8
 73
     4
 74
     0
 42
0.000000001
 43
0.0000000001
 40
0.0
 40
0.0
 40
0.0
 40
0.0
 40
0.098937316697724
 40
0.098937316697724
 40
0.098937316697724
 40
0.098937316697724
 10
-2.239994938551684
 20
-22.76546190542049
 30
0.0
 10
-1.933537609176261
 20
-22.64470816651209
 30
0.0
 10
-1.627619665622611
 20
-22.52160317058813
 30
0.0
 10
-1.327444799274055
 20
-22.3919735404411
 30
0.0
  0
SPLINE
  5
1B46
330
1B05
100
AcDbEntity
  8
0
100
AcDbSpline
210
0.0
220
0.0
230
1.0
 70
     8
 71
     3
 72
     8
 73
     4
 74
     0
 42
0.000000001
 43
0.0000000001
 40
0.0
 40
0.0
 40
0.0
 40
0.0
 40
0.0989373166977242
 40
0.0989373166977242
 40
0.0989373166977242
 40
0.0989373166977242
 10
-2.239994938551684
 20
-25.0654619054205
 30
0.0
 10
-1.93353760917626
 20
-24.94470816651209
 30
0.0
 10
-1.627619665622611
 20
-24.82160317058813
 30
0.0
 10
-1.327444799274054
 20
-24.6919735404411
 30
0.0
  0
SPLINE
  5
1B47
330
1B05
100
AcDbEntity
  8
0
100
AcDbSpline
210
0.0
220
0.0
230
1.0
 70
     8
 71
     3
 72
     8
 73
     4
 74
     0
 42
0.000000001
 43
0.0000000001
 40
0.0270679998956643
 40
0.0270679998956643
 40
0.0270679998956643
 40
0.0270679998956643
 40
0.0989373166977236
 40
0.0989373166977236
 40
0.0989373166977236
 40
0.0989373166977236
 10
1.575
 20
-25.94698898272515
 30
0.0
 10
1.79505060758592
 20
-26.0387871220955
 30
0.0
 10
2.017380462777223
 20
-26.12774486390061
 30
0.0
 10
2.239994938551681
 20
-26.2154619054205
 30
0.0
  0
SPLINE
  5
1B48
330
1B05
100
AcDbEntity
  8
0
100
AcDbSpline
210
0.0
220
0.0
230
1.0
 70
     8
 71
     3
 72
     8
 73
     4
 74
     0
 42
0.000000001
 43
0.0000000001
 40
0.0270679998956643
 40
0.0270679998956643
 40
0.0270679998956643
 40
0.0270679998956643
 40
0.0989373166977236
 40
0.0989373166977236
 40
0.0989373166977236
 40
0.0989373166977236
 10
1.575
 20
-23.64698898272516
 30
0.0
 10
1.79505060758592
 20
-23.7387871220955
 30
0.0
 10
2.017380462777223
 20
-23.8277448639006
 30
0.0
 10
2.239994938551681
 20
-23.9154619054205
 30
0.0
  0
SPLINE
  5
1B49
330
1B05
100
AcDbEntity
  8
0
100
AcDbSpline
210
0.0
220
0.0
230
1.0
 70
     8
 71
     3
 72
     8
 73
     4
 74
     0
 42
0.000000001
 43
0.0000000001
 40
0.0270679998956643
 40
0.0270679998956643
 40
0.0270679998956643
 40
0.0270679998956643
 40
0.0989373166977236
 40
0.0989373166977236
 40
0.0989373166977236
 40
0.0989373166977236
 10
1.575
 20
-21.34698898272515
 30
0.0
 10
1.795050607585921
 20
-21.4387871220955
 30
0.0
 10
2.017380462777223
 20
-21.5277448639006
 30
0.0
 10
2.239994938551681
 20
-21.61546190542049
 30
0.0
  0
SPLINE
  5
1B4A
330
1B05
100
AcDbEntity
  8
0
100
AcDbSpline
210
0.0
220
0.0
230
1.0
 70
     8
 71
     3
 72
     8
 73
     4
 74
     0
 42
0.000000001
 43
0.0000000001
 40
0.0270679998956642
 40
0.0270679998956642
 40
0.0270679998956642
 40
0.0270679998956642
 40
0.0989373166977236
 40
0.0989373166977236
 40
0.0989373166977236
 40
0.0989373166977236
 10
1.574999999999999
 20
-19.04698898272514
 30
0.0
 10
1.79505060758592
 20
-19.1387871220955
 30
0.0
 10
2.017380462777223
 20
-19.2277448639006
 30
0.0
 10
2.239994938551681
 20
-19.3154619054205
 30
0.0
  0
SPLINE
  5
1B4B
330
1B05
100
AcDbEntity
  8
0
100
AcDbSpline
210
0.0
220
0.0
230
1.0
 70
     8
 71
     3
 72
     8
 73
     4
 74
     0
 42
0.000000001
 43
0.0000000001
 40
0.0270679998956646
 40
0.0270679998956646
 40
0.0270679998956646
 40
0.0270679998956646
 40
0.0989373166977241
 40
0.0989373166977241
 40
0.0989373166977241
 40
0.0989373166977241
 10
1.575
 20
-16.74698898272514
 30
0.0
 10
1.795050607585922
 20
-16.83878712209549
 30
0.0
 10
2.017380462777226
 20
-16.9277448639006
 30
0.0
 10
2.239994938551685
 20
-17.01546190542049
 30
0.0
  0
SPLINE
  5
1B4C
330
1B05
100
AcDbEntity
  8
0
100
AcDbSpline
210
0.0
220
0.0
230
1.0
 70
     8
 71
     3
 72
     8
 73
     4
 74
     0
 42
0.000000001
 43
0.0000000001
 40
0.0270679998956646
 40
0.0270679998956646
 40
0.0270679998956646
 40
0.0270679998956646
 40
0.0989373166977242
 40
0.0989373166977242
 40
0.0989373166977242
 40
0.0989373166977242
 10
1.575
 20
-14.44698898272514
 30
0.0
 10
1.795050607585922
 20
-14.53878712209549
 30
0.0
 10
2.017380462777226
 20
-14.6277448639006
 30
0.0
 10
2.239994938551685
 20
-14.71546190542049
 30
0.0
  0
SPLINE
  5
1B4D
330
1B05
100
AcDbEntity
  8
0
100
AcDbSpline
210
0.0
220
0.0
230
1.0
 70
     8
 71
     3
 72
     8
 73
     4
 74
     0
 42
0.000000001
 43
0.0000000001
 40
0.0270679998956644
 40
0.0270679998956644
 40
0.0270679998956644
 40
0.0270679998956644
 40
0.0989373166977239
 40
0.0989373166977239
 40
0.0989373166977239
 40
0.0989373166977239
 10
1.575
 20
-12.14698898272515
 30
0.0
 10
1.795050607585922
 20
-12.2387871220955
 30
0.0
 10
2.017380462777226
 20
-12.3277448639006
 30
0.0
 10
2.239994938551684
 20
-12.41546190542049
 30
0.0
  0
SPLINE
  5
1B4E
330
1B05
100
AcDbEntity
  8
0
100
AcDbSpline
210
0.0
220
0.0
230
1.0
 70
     8
 71
     3
 72
     8
 73
     4
 74
     0
 42
0.000000001
 43
0.0000000001
 40
0.0270679998956646
 40
0.0270679998956646
 40
0.0270679998956646
 40
0.0270679998956646
 40
0.098937316697724
 40
0.098937316697724
 40
0.098937316697724
 40
0.098937316697724
 10
1.575
 20
-9.846988982725147
 30
0.0
 10
1.795050607585922
 20
-9.938787122095497
 30
0.0
 10
2.017380462777226
 20
-10.0277448639006
 30
0.0
 10
2.239994938551684
 20
-10.11546190542049
 30
0.0
  0
SPLINE
  5
1B4F
330
1B05
100
AcDbEntity
  8
0
100
AcDbSpline
210
0.0
220
0.0
230
1.0
 70
     8
 71
     3
 72
     8
 73
     4
 74
     0
 42
0.000000001
 43
0.0000000001
 40
0.0270679998956645
 40
0.0270679998956645
 40
0.0270679998956645
 40
0.0270679998956645
 40
0.098937316697724
 40
0.098937316697724
 40
0.098937316697724
 40
0.098937316697724
 10
1.575
 20
-7.546988982725146
 30
0.0
 10
1.795050607585922
 20
-7.638787122095496
 30
0.0
 10
2.017380462777226
 20
-7.727744863900598
 30
0.0
 10
2.239994938551684
 20
-7.815461905420494
 30
0.0
  0
SPLINE
  5
1B50
330
1B05
100
AcDbEntity
  8
0
100
AcDbSpline
210
0.0
220
0.0
230
1.0
 70
     8
 71
     3
 72
     8
 73
     4
 74
     0
 42
0.000000001
 43
0.0000000001
 40
0.0270679998956645
 40
0.0270679998956645
 40
0.0270679998956645
 40
0.0270679998956645
 40
0.098937316697724
 40
0.098937316697724
 40
0.098937316697724
 40
0.098937316697724
 10
-1.575
 20
-7.221760415527395
 30
0.0
 10
-1.795050607585923
 20
-7.129962276157045
 30
0.0
 10
-2.017380462777226
 20
-7.041004534351942
 30
0.0
 10
-2.239994938551685
 20
-6.953287492832046
 30
0.0
  0
SPLINE
  5
1B51
330
1B05
100
AcDbEntity
  8
0
100
AcDbSpline
210
0.0
220
0.0
230
1.0
 70
     8
 71
     3
 72
     8
 73
     4
 74
     0
 42
0.000000001
 43
0.0000000001
 40
0.0270679998956643
 40
0.0270679998956643
 40
0.0270679998956643
 40
0.0270679998956643
 40
0.0989373166977239
 40
0.0989373166977239
 40
0.0989373166977239
 40
0.0989373166977239
 10
-1.575
 20
-9.521760415527396
 30
0.0
 10
-1.795050607585922
 20
-9.429962276157047
 30
0.0
 10
-2.017380462777226
 20
-9.341004534351943
 30
0.0
 10
-2.239994938551685
 20
-9.253287492832049
 30
0.0
  0
SPLINE
  5
1B52
330
1B05
100
AcDbEntity
  8
0
100
AcDbSpline
210
0.0
220
0.0
230
1.0
 70
     8
 71
     3
 72
     8
 73
     4
 74
     0
 42
0.000000001
 43
0.0000000001
 40
0.0270679998956645
 40
0.0270679998956645
 40
0.0270679998956645
 40
0.0270679998956645
 40
0.0989373166977239
 40
0.0989373166977239
 40
0.0989373166977239
 40
0.0989373166977239
 10
-1.575
 20
-11.82176041552739
 30
0.0
 10
-1.795050607585922
 20
-11.72996227615704
 30
0.0
 10
-2.017380462777225
 20
-11.64100453435194
 30
0.0
 10
-2.239994938551684
 20
-11.55328749283205
 30
0.0
  0
SPLINE
  5
1B53
330
1B05
100
AcDbEntity
  8
0
100
AcDbSpline
210
0.0
220
0.0
230
1.0
 70
     8
 71
     3
 72
     8
 73
     4
 74
     0
 42
0.000000001
 43
0.0000000001
 40
0.0270679998956644
 40
0.0270679998956644
 40
0.0270679998956644
 40
0.0270679998956644
 40
0.0989373166977239
 40
0.0989373166977239
 40
0.0989373166977239
 40
0.0989373166977239
 10
-1.575
 20
-14.1217604155274
 30
0.0
 10
-1.795050607585922
 20
-14.02996227615705
 30
0.0
 10
-2.017380462777226
 20
-13.94100453435194
 30
0.0
 10
-2.239994938551684
 20
-13.85328749283204
 30
0.0
  0
SPLINE
  5
1B54
330
1B05
100
AcDbEntity
  8
0
100
AcDbSpline
210
0.0
220
0.0
230
1.0
 70
     8
 71
     3
 72
     8
 73
     4
 74
     0
 42
0.000000001
 43
0.0000000001
 40
0.0270679998956644
 40
0.0270679998956644
 40
0.0270679998956644
 40
0.0270679998956644
 40
0.0989373166977238
 40
0.0989373166977238
 40
0.0989373166977238
 40
0.0989373166977238
 10
-1.575
 20
-16.42176041552739
 30
0.0
 10
-1.795050607585922
 20
-16.32996227615704
 30
0.0
 10
-2.017380462777226
 20
-16.24100453435194
 30
0.0
 10
-2.239994938551684
 20
-16.15328749283205
 30
0.0
  0
SPLINE
  5
1B55
330
1B05
100
AcDbEntity
  8
0
100
AcDbSpline
210
0.0
220
0.0
230
1.0
 70
     8
 71
     3
 72
     8
 73
     4
 74
     0
 42
0.000000001
 43
0.0000000001
 40
0.0270679998956643
 40
0.0270679998956643
 40
0.0270679998956643
 40
0.0270679998956643
 40
0.0989373166977238
 40
0.0989373166977238
 40
0.0989373166977238
 40
0.0989373166977238
 10
-1.575
 20
-18.72176041552739
 30
0.0
 10
-1.795050607585922
 20
-18.62996227615705
 30
0.0
 10
-2.017380462777226
 20
-18.54100453435194
 30
0.0
 10
-2.239994938551684
 20
-18.45328749283205
 30
0.0
  0
SPLINE
  5
1B56
330
1B05
100
AcDbEntity
  8
0
100
AcDbSpline
210
0.0
220
0.0
230
1.0
 70
     8
 71
     3
 72
     8
 73
     4
 74
     0
 42
0.000000001
 43
0.0000000001
 40
0.0270679998956643
 40
0.0270679998956643
 40
0.0270679998956643
 40
0.0270679998956643
 40
0.0989373166977236
 40
0.0989373166977236
 40
0.0989373166977236
 40
0.0989373166977236
 10
-1.575
 20
-21.02176041552739
 30
0.0
 10
-1.795050607585921
 20
-20.92996227615704
 30
0.0
 10
-2.017380462777223
 20
-20.84100453435195
 30
0.0
 10
-2.239994938551681
 20
-20.75328749283205
 30
0.0
  0
SPLINE
  5
1B57
330
1B05
100
AcDbEntity
  8
0
100
AcDbSpline
210
0.0
220
0.0
230
1.0
 70
     8
 71
     3
 72
     8
 73
     4
 74
     0
 42
0.000000001
 43
0.0000000001
 40
0.0270679998956643
 40
0.0270679998956643
 40
0.0270679998956643
 40
0.0270679998956643
 40
0.0989373166977236
 40
0.0989373166977236
 40
0.0989373166977236
 40
0.0989373166977236
 10
-1.575
 20
-23.32176041552739
 30
0.0
 10
-1.795050607585921
 20
-23.22996227615704
 30
0.0
 10
-2.017380462777223
 20
-23.14100453435194
 30
0.0
 10
-2.239994938551681
 20
-23.05328749283205
 30
0.0
  0
SPLINE
  5
1B58
330
1B05
100
AcDbEntity
  8
0
100
AcDbSpline
210
0.0
220
0.0
230
1.0
 70
     8
 71
     3
 72
     8
 73
     4
 74
     0
 42
0.000000001
 43
0.0000000001
 40
0.0270679998956642
 40
0.0270679998956642
 40
0.0270679998956642
 40
0.0270679998956642
 40
0.0989373166977236
 40
0.0989373166977236
 40
0.0989373166977236
 40
0.0989373166977236
 10
-1.575
 20
-25.6217604155274
 30
0.0
 10
-1.795050607585921
 20
-25.52996227615705
 30
0.0
 10
-2.017380462777223
 20
-25.44100453435195
 30
0.0
 10
-2.239994938551682
 20
-25.35328749283205
 30
0.0
  0
SPLINE
  5
1B59
330
1B05
100
AcDbEntity
  8
0
100
AcDbSpline
210
0.0
220
0.0
230
1.0
 70
     8
 71
     3
 72
     8
 73
     4
 74
     0
 42
0.000000001
 43
0.0000000001
 40
0.0
 40
0.0
 40
0.0
 40
0.0
 40
0.098937316697724
 40
0.098937316697724
 40
0.098937316697724
 40
0.098937316697724
 10
2.239994938551685
 20
-8.103287492832047
 30
0.0
 10
1.933537609176261
 20
-8.22404123174045
 30
0.0
 10
1.627619665622614
 20
-8.34714622766441
 30
0.0
 10
1.327444799274057
 20
-8.476775857811439
 30
0.0
  0
SPLINE
  5
1B5A
330
1B05
100
AcDbEntity
  8
0
100
AcDbSpline
210
0.0
220
0.0
230
1.0
 70
     8
 71
     3
 72
     8
 73
     4
 74
     0
 42
0.000000001
 43
0.0000000001
 40
0.0
 40
0.0
 40
0.0
 40
0.0
 40
0.098937316697724
 40
0.098937316697724
 40
0.098937316697724
 40
0.098937316697724
 10
2.239994938551685
 20
-10.40328749283204
 30
0.0
 10
1.933537609176262
 20
-10.52404123174045
 30
0.0
 10
1.627619665622614
 20
-10.64714622766441
 30
0.0
 10
1.327444799274057
 20
-10.77677585781144
 30
0.0
  0
SPLINE
  5
1B5B
330
1B05
100
AcDbEntity
  8
0
100
AcDbSpline
210
0.0
220
0.0
230
1.0
 70
     8
 71
     3
 72
     8
 73
     4
 74
     0
 42
0.000000001
 43
0.0000000001
 40
0.0
 40
0.0
 40
0.0
 40
0.0
 40
0.0989373166977238
 40
0.0989373166977238
 40
0.0989373166977238
 40
0.0989373166977238
 10
2.239994938551684
 20
-12.70328749283204
 30
0.0
 10
1.933537609176261
 20
-12.82404123174045
 30
0.0
 10
1.627619665622614
 20
-12.94714622766441
 30
0.0
 10
1.327444799274057
 20
-13.07677585781144
 30
0.0
  0
SPLINE
  5
1B5C
330
1B05
100
AcDbEntity
  8
0
100
AcDbSpline
210
0.0
220
0.0
230
1.0
 70
     8
 71
     3
 72
     8
 73
     4
 74
     0
 42
0.000000001
 43
0.0000000001
 40
0.0
 40
0.0
 40
0.0
 40
0.0
 40
0.0989373166977238
 40
0.0989373166977238
 40
0.0989373166977238
 40
0.0989373166977238
 10
2.239994938551684
 20
-15.00328749283205
 30
0.0
 10
1.933537609176261
 20
-15.12404123174045
 30
0.0
 10
1.627619665622614
 20
-15.24714622766441
 30
0.0
 10
1.327444799274058
 20
-15.37677585781144
 30
0.0
  0
SPLINE
  5
1B5D
330
1B05
100
AcDbEntity
  8
0
100
AcDbSpline
210
0.0
220
0.0
230
1.0
 70
     8
 71
     3
 72
     8
 73
     4
 74
     0
 42
0.000000001
 43
0.0000000001
 40
0.0
 40
0.0
 40
0.0
 40
0.0
 40
0.0989373166977238
 40
0.0989373166977238
 40
0.0989373166977238
 40
0.0989373166977238
 10
2.239994938551684
 20
-17.30328749283205
 30
0.0
 10
1.933537609176261
 20
-17.42404123174045
 30
0.0
 10
1.627619665622614
 20
-17.5471462276644
 30
0.0
 10
1.327444799274057
 20
-17.67677585781144
 30
0.0
  0
SPLINE
  5
1B5E
330
1B05
100
AcDbEntity
  8
0
100
AcDbSpline
210
0.0
220
0.0
230
1.0
 70
     8
 71
     3
 72
     8
 73
     4
 74
     0
 42
0.000000001
 43
0.0000000001
 40
0.0
 40
0.0
 40
0.0
 40
0.0
 40
0.0989373166977241
 40
0.0989373166977241
 40
0.0989373166977241
 40
0.0989373166977241
 10
2.239994938551685
 20
-19.60328749283205
 30
0.0
 10
1.933537609176261
 20
-19.72404123174045
 30
0.0
 10
1.627619665622612
 20
-19.84714622766441
 30
0.0
 10
1.327444799274055
 20
-19.97677585781144
 30
0.0
  0
SPLINE
  5
1B5F
330
1B05
100
AcDbEntity
  8
0
100
AcDbSpline
210
0.0
220
0.0
230
1.0
 70
     8
 71
     3
 72
     8
 73
     4
 74
     0
 42
0.000000001
 43
0.0000000001
 40
0.0
 40
0.0
 40
0.0
 40
0.0
 40
0.0989373166977242
 40
0.0989373166977242
 40
0.0989373166977242
 40
0.0989373166977242
 10
2.239994938551685
 20
-21.90328749283204
 30
0.0
 10
1.933537609176261
 20
-22.02404123174045
 30
0.0
 10
1.627619665622612
 20
-22.14714622766441
 30
0.0
 10
1.327444799274055
 20
-22.27677585781144
 30
0.0
  0
SPLINE
  5
1B60
330
1B05
100
AcDbEntity
  8
0
100
AcDbSpline
210
0.0
220
0.0
230
1.0
 70
     8
 71
     3
 72
     8
 73
     4
 74
     0
 42
0.000000001
 43
0.0000000001
 40
0.0
 40
0.0
 40
0.0
 40
0.0
 40
0.098937316697724
 40
0.098937316697724
 40
0.098937316697724
 40
0.098937316697724
 10
2.239994938551685
 20
-24.20328749283205
 30
0.0
 10
1.933537609176261
 20
-24.32404123174045
 30
0.0
 10
1.627619665622612
 20
-24.44714622766441
 30
0.0
 10
1.327444799274055
 20
-24.57677585781144
 30
0.0
  0
LINE
  5
1B61
330
1B05
100
AcDbEntity
  8
0
100
AcDbLine
 10
-1.575
 20
-7.118749398252544
 30
0.0
 11
-2.424999999999999
 21
-6.809374699126271
 31
0.0
  0
SPLINE
  5
1B62
330
1B05
100
AcDbEntity
  8
0
100
AcDbSpline
210
0.0
220
0.0
230
1.0
 70
     8
 71
     3
 72
    14
 73
    10
 74
     0
 42
0.000000001
 43
0.0000000001
 40
0.0753855033386649
 40
0.0753855033386649
 40
0.0753855033386649
 40
0.0753855033386649
 40
0.1272578828834946
 40
0.1272578828834946
 40
0.1908868243252418
 40
0.1908868243252418
 40
0.2335634165254884
 40
0.2335634165254884
 40
0.2762400087257349
 40
0.2762400087257349
 40
0.2762400087257349
 40
0.2762400087257349
 10
-1.404730736795941
 20
-6.363590145564001
 30
0.0
 10
-1.328058180986479
 20
-6.332300867612014
 30
0.0
 10
-1.227351934759845
 20
-6.301168603774669
 30
0.0
 10
-0.9578750900125376
 20
-6.231293601869313
 30
0.0
 10
-0.7817872806037299
 20
-6.193174635592413
 30
0.0
 10
-0.458543126592125
 20
-6.128862822512392
 30
0.0
 10
-0.3223906521001834
 20
-6.103158591203161
 30
0.0
 10
-0.0445094060682272
 20
-6.051522351273872
 30
0.0
 10
0.0959848571410568
 20
-6.025818119964643
 30
0.0
 10
0.2343208038644828
 20
-5.999999999999998
 30
0.0
  0
SPLINE
  5
1B63
330
1B05
100
AcDbEntity
  8
0
100
AcDbSpline
210
0.0
220
0.0
230
1.0
 70
     8
 71
     3
 72
    20
 73
    16
 74
     0
 42
0.000000001
 43
0.0000000001
 40
0.008017431350001
 40
0.008017431350001
 40
0.008017431350001
 40
0.008017431350001
 40
0.0663760331741296
 40
0.0663760331741296
 40
0.1327520663482594
 40
0.1327520663482594
 40
0.199128099522389
 40
0.199128099522389
 40
0.2655041326965185
 40
0.2655041326965185
 40
0.3318801658706482
 40
0.3318801658706482
 40
0.3738287361688124
 40
0.3738287361688124
 40
0.4157773064669764
 40
0.4157773064669764
 40
0.4157773064669764
 40
0.4157773064669764
 10
1.247885648685814
 20
-6.021612832705605
 30
0.0
 10
1.133851521218892
 20
-6.073998515424188
 30
0.0
 10
0.9942288979053303
 20
-6.126028853663206
 30
0.0
 10
0.6548392015516614
 20
-6.238238998931397
 30
0.0
 10
0.4531716947674606
 20
-6.297344167273575
 30
0.0
 10
0.0321721512138148
 20
-6.416766720999721
 30
0.0
 10
-0.1828157586196124
 20
-6.475871889341902
 30
0.0
 10
-0.5956856214215688
 20
-6.595294443068047
 30
0.0
 10
-0.7893073343980816
 20
-6.654399611410227
 30
0.0
 10
-1.127434227564286
 20
-6.773822165136371
 30
0.0
 10
-1.268450410754133
 20
-6.832927333478552
 30
0.0
 10
-1.43885384238171
 20
-6.930375163360885
 30
0.0
 10
-1.489521832233013
 20
-6.967957451277824
 30
0.0
 10
-1.5577352562855
 20
-7.043430557316345
 30
0.0
 10
-1.575
 20
-7.081012845233283
 30
0.0
 10
-1.575
 20
-7.118749398252544
 30
0.0
  0
SPLINE
  5
1B64
330
1B05
100
AcDbEntity
  8
0
100
AcDbSpline
210
0.0
220
0.0
230
1.0
 70
     8
 71
     3
 72
    17
 73
    13
 74
     0
 42
0.000000001
 43
0.0000000001
 40
0.0
 40
0.0
 40
0.0
 40
0.0
 40
1.091967005799007
 40
1.091967005799007
 40
1.091967005799007
 40
2.190794468424308
 40
2.190794468424308
 40
2.190794468424308
 40
3.321065209891517
 40
3.321065209891517
 40
3.321065209891517
 40
3.371667919331714
 40
3.371667919331714
 40
3.371667919331714
 40
3.371667919331714
 10
-2.424999999999999
 20
-6.809374699126271
 30
0.0
 10
-2.349616156422816
 20
-6.676134206682209
 30
0.0
 10
-1.758175347552873
 20
-6.542893714238146
 30
0.0
 10
-1.01309848381715
 20
-6.409653221794084
 30
0.0
 10
-0.2633405558837158
 20
-6.275575624711261
 30
0.0
 10
0.6018074090548645
 20
-6.141498027628441
 30
0.0
 10
1.145377746881159
 20
-6.007420430545619
 30
0.0
 10
1.704502513663594
 20
-5.869506162634189
 30
0.0
 10
1.902898761317347
 20
-5.731591894722757
 30
0.0
 10
1.70928888916066
 20
-5.593677626811328
 30
0.0
 10
1.700620891533135
 20
-5.587503145449703
 30
0.0
 10
1.691252851468223
 20
-5.581328664088078
 30
0.0
 10
1.681207904436709
 20
-5.575154182726453
 30
0.0
  0
SPLINE
  5
1B65
330
1B05
100
AcDbEntity
  8
0
100
AcDbSpline
210
0.0
220
0.0
230
1.0
 70
     8
 71
     3
 72
    14
 73
    10
 74
     0
 42
0.000000001
 43
0.0000000001
 40
0.0
 40
0.0
 40
0.0
 40
0.0
 40
0.0637351496279006
 40
0.0637351496279006
 40
0.1284458354677771
 40
0.1284458354677771
 40
0.1941322419575149
 40
0.1941322419575149
 40
0.2344750727377381
 40
0.2344750727377381
 40
0.2344750727377381
 40
0.2344750727377381
 10
0.2343208038644842
 20
-5.999999999999998
 30
0.0
 10
0.4426009959158934
 20
-5.964595273927053
 30
0.0
 10
0.6443624800323261
 20
-5.929817651175946
 30
0.0
 10
1.014740179418097
 20
-5.859578440081596
 30
0.0
 10
1.17906795442194
 20
-5.82481406215375
 30
0.0
 10
1.446993421576237
 20
-5.754601935071286
 30
0.0
 10
1.546948417962136
 20
-5.719850171403527
 30
0.0
 10
1.643308434188261
 20
-5.663621420041014
 30
0.0
 10
1.664393425391654
 20
-5.642426069277033
 30
0.0
 10
1.669681470545466
 20
-5.621273930194019
 30
0.0
  0
SPLINE
  5
1B66
330
1B05
100
AcDbEntity
  8
0
100
AcDbSpline
210
0.0
220
0.0
230
1.0
 70
     8
 71
     3
 72
     8
 73
     4
 74
     0
 42
0.000000001
 43
0.0000000001
 40
0.0
 40
0.0
 40
0.0
 40
0.0
 40
0.0382756638791786
 40
0.0382756638791786
 40
0.0382756638791786
 40
0.0382756638791786
 10
1.593264847809041
 20
-5.868008595397554
 30
0.0
 10
1.477171210272807
 20
-5.918196539919827
 30
0.0
 10
1.361789283577467
 20
-5.969287600689198
 30
0.0
 10
1.247885659110046
 20
-6.021612593376771
 30
0.0
  0
SPLINE
  5
1B67
330
1B05
100
AcDbEntity
  8
0
100
AcDbSpline
210
0.0
220
0.0
230
1.0
 70
     8
 71
     3
 72
     8
 73
     4
 74
     0
 42
0.000000001
 43
0.0000000001
 40
0.0
 40
0.0
 40
0.0
 40
0.0
 40
0.089100949431821
 40
0.089100949431821
 40
0.089100949431821
 40
0.089100949431821
 10
-2.232702524053975
 20
-6.689803860401022
 30
0.0
 10
-1.955586422894463
 20
-6.583310913160057
 30
0.0
 10
-1.678848234199057
 20
-6.475454269160255
 30
0.0
 10
-1.404730861459421
 20
-6.363590393169483
 30
0.0
  0
LINE
  5
1B68
330
1B05
100
AcDbEntity
  8
0
100
AcDbLine
 10
1.575000000000001
 20
-5.999999999999998
 30
0.0
 11
1.295167455077939
 21
-5.999999999999998
 31
0.0
  0
LINE
  5
1B69
330
1B05
100
AcDbEntity
  8
0
100
AcDbLine
 10
0.2343208038644822
 20
-5.999999999999998
 30
0.0
 11
-1.575
 21
-5.999999999999998
 31
0.0
  0
LINE
  5
1B6A
330
1B05
100
AcDbEntity
  8
0
100
AcDbLine
 10
0.6038747671928549
 20
-27.25862767606286
 30
0.0
 11
-0.2540511595816452
 21
-27.25862767606286
 31
0.0
  0
LINE
  5
1B6B
330
1B05
100
AcDbEntity
  8
0
100
AcDbLine
 10
1.999999999999999
 20
2.7
 30
0.0
 11
-2.0
 21
2.7
 31
0.0
  0
LINE
  5
1B6C
330
1B05
100
AcDbEntity
  8
0
100
AcDbLine
 10
4.150000000000001
 20
1.550013939157267
 30
0.0
 11
-4.150000000000001
 21
1.550013939157267
 31
0.0
  0
LINE
  5
1B6D
330
1B05
100
AcDbEntity
  8
0
100
AcDbLine
 10
2.450000000000001
 20
-2.499999999999999
 30
0.0
 11
-2.45
 21
-2.499999999999999
 31
0.0
  0
LINE
  5
1B6E
330
1B05
100
AcDbEntity
  8
0
100
AcDbLine
 10
4.149999999999999
 20
0.0
 30
0.0
 11
-4.15
 21
0.0
 31
0.0
  0
LINE
  5
1B6F
330
1B05
100
AcDbEntity
  8
0
100
AcDbLine
 10
-1.575
 20
-27.17509677375069
 30
0.0
 11
-1.575
 21
-25.51874939825254
 31
0.0
  0
LINE
  5
1B70
330
1B05
100
AcDbEntity
  8
0
100
AcDbLine
 10
-1.575
 20
-24.79698898272515
 30
0.0
 11
-1.575
 21
-23.21874939825254
 31
0.0
  0
LINE
  5
1B71
330
1B05
100
AcDbEntity
  8
0
100
AcDbLine
 10
-1.575
 20
-22.49698898272515
 30
0.0
 11
-1.575
 21
-20.91874939825254
 31
0.0
  0
LINE
  5
1B72
330
1B05
100
AcDbEntity
  8
0
100
AcDbLine
 10
-1.575
 20
-20.19698898272514
 30
0.0
 11
-1.575
 21
-18.61874939825254
 31
0.0
  0
LINE
  5
1B73
330
1B05
100
AcDbEntity
  8
0
100
AcDbLine
 10
-1.575
 20
-17.89698898272514
 30
0.0
 11
-1.575
 21
-16.31874939825254
 31
0.0
  0
LINE
  5
1B74
330
1B05
100
AcDbEntity
  8
0
100
AcDbLine
 10
-1.575
 20
-15.59698898272515
 30
0.0
 11
-1.575
 21
-14.01874939825254
 31
0.0
  0
LINE
  5
1B75
330
1B05
100
AcDbEntity
  8
0
100
AcDbLine
 10
-1.575
 20
-13.29698898272515
 30
0.0
 11
-1.575
 21
-11.71874939825254
 31
0.0
  0
LINE
  5
1B76
330
1B05
100
AcDbEntity
  8
0
100
AcDbLine
 10
-1.575
 20
-10.99698898272514
 30
0.0
 11
-1.575
 21
-9.418749398252543
 31
0.0
  0
LINE
  5
1B77
330
1B05
100
AcDbEntity
  8
0
100
AcDbLine
 10
-1.575
 20
-8.696988982725152
 30
0.0
 11
-1.575
 21
-7.118749398252544
 31
0.0
  0
LINE
  5
1B78
330
1B05
100
AcDbEntity
  8
0
100
AcDbLine
 10
-1.575
 20
-6.43245601166829
 30
0.0
 11
-1.575
 21
-6.0
 31
0.0
  0
LINE
  5
1B79
330
1B05
100
AcDbEntity
  8
0
100
AcDbLine
 10
1.575
 20
-25.0
 30
0.0
 11
1.575
 21
-24.4717604155274
 31
0.0
  0
LINE
  5
1B7A
330
1B05
100
AcDbEntity
  8
0
100
AcDbLine
 10
1.575
 20
-23.75
 30
0.0
 11
1.575
 21
-22.1717604155274
 31
0.0
  0
LINE
  5
1B7B
330
1B05
100
AcDbEntity
  8
0
100
AcDbLine
 10
1.575
 20
-21.45
 30
0.0
 11
1.575
 21
-19.87176041552739
 31
0.0
  0
LINE
  5
1B7C
330
1B05
100
AcDbEntity
  8
0
100
AcDbLine
 10
1.575
 20
-19.15
 30
0.0
 11
1.575
 21
-17.57176041552739
 31
0.0
  0
LINE
  5
1B7D
330
1B05
100
AcDbEntity
  8
0
100
AcDbLine
 10
1.575
 20
-16.85
 30
0.0
 11
1.575
 21
-15.27176041552739
 31
0.0
  0
LINE
  5
1B7E
330
1B05
100
AcDbEntity
  8
0
100
AcDbLine
 10
1.575
 20
-14.55
 30
0.0
 11
1.575
 21
-12.97176041552739
 31
0.0
  0
LINE
  5
1B7F
330
1B05
100
AcDbEntity
  8
0
100
AcDbLine
 10
1.575
 20
-12.25
 30
0.0
 11
1.575
 21
-10.67176041552739
 31
0.0
  0
LINE
  5
1B80
330
1B05
100
AcDbEntity
  8
0
100
AcDbLine
 10
1.575
 20
-9.949999999999999
 30
0.0
 11
1.575
 21
-8.371760415527395
 31
0.0
  0
LINE
  5
1B81
330
1B05
100
AcDbEntity
  8
0
100
AcDbLine
 10
1.575
 20
-7.649999999999998
 30
0.0
 11
1.575
 21
-6.0
 31
0.0
  0
LINE
  5
1B82
330
1B05
100
AcDbEntity
  8
0
100
AcDbLine
 10
0.0
 20
-35.0
 30
0.0
 11
-0.5682765426816234
 21
-32.20683155564559
 31
0.0
  0
LINE
  5
1B83
330
1B05
100
AcDbEntity
  8
0
100
AcDbLine
 10
-0.6469243049543179
 20
-31.82026545393294
 30
0.0
 11
-1.02089615289374
 21
-29.98213509611079
 31
0.0
  0
LINE
  5
1B84
330
1B05
100
AcDbEntity
  8
0
100
AcDbLine
 10
-1.11642260027094
 20
-29.51260760663149
 30
0.0
 11
-1.473515763105856
 21
-27.757438636576
 31
0.0
  0
ARC
  5
1B85
330
1B05
100
AcDbEntity
  8
0
100
AcDbCircle
 10
1.999999999999999
 20
0.1152000000000003
 30
0.0
 40
2.584799999999999
100
AcDbArc
 50
33.7173752016246
 51
90.00000000000003
  0
ARC
  5
1B86
330
1B05
100
AcDbEntity
  8
0
100
AcDbCircle
 10
-1.999999999999999
 20
0.1152000000000003
 30
0.0
 40
2.584799999999999
100
AcDbArc
 50
90.00000000000003
 51
146.2826247983754
  0
LINE
  5
1B87
330
1B05
100
AcDbEntity
  8
0
100
AcDbLine
 10
-1.575
 20
-5.999999999999998
 30
0.0
 11
-2.45
 21
-2.5
 31
0.0
  0
LINE
  5
1B88
330
1B05
100
AcDbEntity
  8
0
100
AcDbLine
 10
1.575
 20
-5.999999999999998
 30
0.0
 11
1.609827142525695
 21
-5.860691429897221
 31
0.0
  0
LINE
  5
1B89
330
1B05
100
AcDbEntity
  8
0
100
AcDbLine
 10
1.669681416143588
 20
-5.621274335425646
 30
0.0
 11
2.45
 21
-2.5
 31
0.0
  0
LINE
  5
1B8A
330
1B05
100
AcDbEntity
  8
0
100
AcDbLine
 10
-2.45
 20
-2.499999999999999
 30
0.0
 11
-2.45
 21
0.0
 31
0.0
  0
LINE
  5
1B8B
330
1B05
100
AcDbEntity
  8
0
100
AcDbLine
 10
2.45
 20
-2.499999999999999
 30
0.0
 11
2.45
 21
0.0
 31
0.0
  0
LINE
  5
1B8C
330
1B05
100
AcDbEntity
  8
0
100
AcDbLine
 10
-4.15
 20
0.0
 30
0.0
 11
-4.15
 21
1.550013939157267
 31
0.0
  0
LINE
  5
1B8D
330
1B05
100
AcDbEntity
  8
0
100
AcDbLine
 10
4.15
 20
0.0
 30
0.0
 11
4.15
 21
1.550013939157267
 31
0.0
  0
SPLINE
  5
1B8E
330
1B05
100
AcDbEntity
  8
0
100
AcDbSpline
210
0.0
220
0.0
230
1.0
 70
     8
 71
     3
 72
    16
 73
    12
 74
     0
 42
0.000000001
 43
0.0000000001
 40
0.0841999014422291
 40
0.0841999014422291
 40
0.0841999014422291
 40
0.0841999014422291
 40
0.131186910520046
 40
0.131186910520046
 40
0.1967803657800691
 40
0.1967803657800691
 40
0.2623738210400922
 40
0.2623738210400922
 40
0.3279672763001153
 40
0.3279672763001153
 40
0.3337808308736103
 40
0.3337808308736103
 40
0.3337808308736103
 40
0.3337808308736103
 10
-1.287135212532445
 20
-27.04994664463263
 30
0.0
 10
-1.200061014824932
 20
-27.0111665711018
 30
0.0
 10
-1.09548736090926
 20
-26.97250757339198
 30
0.0
 10
-0.8102876430951624
 20
-26.87921047738817
 30
0.0
 10
-0.61933215540578
 20
-26.8253975445106
 30
0.0
 10
-0.2107429473308942
 20
-26.71668101134278
 30
0.0
 10
0.0027247040081358
 20
-26.66286807846521
 30
0.0
 10
0.4224093027706745
 20
-26.55415154529739
 30
0.0
 10
0.624347050005749
 20
-26.50033861241982
 30
0.0
 10
0.8223972441660183
 20
-26.44116256717105
 30
0.0
 10
0.8383412386701753
 20
-26.43634728586305
 30
0.0
 10
0.8540979727789871
 20
-26.43153372052336
 30
0.0
  0
SPLINE
  5
1B8F
330
1B05
100
AcDbEntity
  8
0
100
AcDbSpline
210
0.0
220
0.0
230
1.0
 70
     8
 71
     3
 72
    10
 73
     6
 74
     0
 42
0.000000001
 43
0.0000000001
 40
0.0922768828979011
 40
0.0922768828979011
 40
0.0922768828979011
 40
0.0922768828979011
 40
0.1259319724829669
 40
0.1259319724829669
 40
0.1876627580998987
 40
0.1876627580998987
 40
0.1876627580998987
 40
0.1876627580998987
 10
0.6552582181952059
 20
-27.0648365238769
 30
0.0
 10
0.5558338026710281
 20
-27.08759591677917
 30
0.0
 10
0.4517163514979499
 20
-27.11034447233498
 30
0.0
 10
0.1479755385482912
 20
-27.17514065662307
 30
0.0
 10
-0.0552380885380645
 20
-27.21669359145534
 30
0.0
 10
-0.2540511595816446
 20
-27.25862767606286
 30
0.0
  0
SPLINE
  5
1B90
330
1B05
100
AcDbEntity
  8
0
100
AcDbSpline
210
0.0
220
0.0
230
1.0
 70
     8
 71
     3
 72
    14
 73
    10
 74
     0
 42
0.000000001
 43
0.0000000001
 40
0.6870712081770103
 40
0.6870712081770103
 40
0.6870712081770103
 40
0.6870712081770103
 40
1.774932457014266
 40
1.774932457014266
 40
1.774932457014266
 40
2.897602442195322
 40
2.897602442195322
 40
2.897602442195322
 40
2.974668895479088
 40
2.974668895479088
 40
2.974668895479088
 40
2.974668895479088
 10
0.726258337800942
 20
-26.81950916697536
 30
0.0
 10
-0.0970312805822583
 20
-26.95224867992413
 30
0.0
 10
-1.011076064540429
 20
-27.0849881928729
 30
0.0
 10
-1.564961189641442
 20
-27.21772770582167
 30
0.0
 10
-2.136569201098597
 20
-27.35471453865023
 30
0.0
 10
-2.300536631237182
 20
-27.4917013714788
 30
0.0
 10
-2.009188617865699
 20
-27.62868820430736
 30
0.0
 10
-1.989188833104204
 20
-27.6380917596638
 30
0.0
 10
-1.967146188217623
 20
-27.64749531502026
 30
0.0
 10
-1.943193162227315
 20
-27.6568988703767
 30
0.0
  0
SPLINE
  5
1B91
330
1B05
100
AcDbEntity
  8
0
100
AcDbSpline
210
0.0
220
0.0
230
1.0
 70
     8
 71
     3
 72
     8
 73
     4
 74
     0
 42
0.000000001
 43
0.0000000001
 40
5.179927822404592
 40
5.179927822404592
 40
5.179927822404592
 40
5.179927822404592
 40
5.713252112001697
 40
5.713252112001697
 40
5.713252112001697
 40
5.713252112001697
 10
1.620012434283864
 20
-28.46414794611746
 30
0.0
 10
1.773844629273869
 20
-28.52922353045374
 30
0.0
 10
1.84396875974133
 20
-28.59429911479
 30
0.0
 10
1.825308636207348
 20
-28.65937469912627
 30
0.0
  0
SPLINE
  5
1B92
330
1B05
100
AcDbEntity
  8
0
100
AcDbSpline
210
0.0
220
0.0
230
1.0
 70
     8
 71
     3
 72
    11
 73
     7
 74
     0
 42
0.000000001
 43
0.0000000001
 40
7.130199699693288
 40
7.130199699693288
 40
7.130199699693288
 40
7.130199699693288
 40
8.358862074187019
 40
8.358862074187019
 40
8.358862074187019
 40
9.414836338470669
 40
9.414836338470669
 40
9.414836338470669
 40
9.414836338470669
 10
0.2569231859535708
 20
-29.17805738829775
 30
0.0
 10
-0.4282039934246943
 20
-29.32797728418806
 30
0.0
 10
-1.097298276989344
 20
-29.47789718007836
 30
0.0
 10
-1.361127260265568
 20
-29.62781707596867
 30
0.0
 10
-1.587875162940304
 20
-29.75666577765491
 30
0.0
 10
-1.509253535751721
 20
-29.88551447934114
 30
0.0
 10
-1.215551273938628
 20
-30.01436318102738
 30
0.0
  0
SPLINE
  5
1B93
330
1B05
100
AcDbEntity
  8
0
100
AcDbSpline
210
0.0
220
0.0
230
1.0
 70
     8
 71
     3
 72
     8
 73
     4
 74
     0
 42
0.000000001
 43
0.0000000001
 40
11.26693764710685
 40
11.26693764710685
 40
11.26693764710685
 40
11.26693764710685
 40
11.99643741918128
 40
11.99643741918128
 40
11.99643741918128
 40
11.99643741918128
 10
0.9218185735664391
 20
-30.69233666129314
 30
0.0
 10
1.101711425248906
 20
-30.78134934057086
 30
0.0
 10
1.191318224019001
 20
-30.87036201984856
 30
0.0
 10
1.165794248962091
 20
-30.95937469912627
 30
0.0
  0
SPLINE
  5
1B94
330
1B05
100
AcDbEntity
  8
0
100
AcDbSpline
210
0.0
220
0.0
230
1.0
 70
     8
 71
     3
 72
    18
 73
    14
 74
     0
 42
0.000000001
 43
0.0000000001
 40
0.8388418121831733
 40
0.8388418121831733
 40
0.8388418121831733
 40
0.8388418121831733
 40
0.8515268520832684
 40
0.8515268520832684
 40
0.9000604242302914
 40
0.9000604242302914
 40
0.9475764375925912
 40
0.9475764375925912
 40
0.9940779386959142
 40
0.9940779386959142
 40
1.039568292369347
 40
1.039568292369347
 40
1.044365059901286
 40
1.044365059901286
 40
1.044365059901286
 40
1.044365059901286
 10
0.2361305594002133
 20
-29.3526712523634
 30
0.0
 10
0.1965500752784862
 20
-29.36497270900257
 30
0.0
 10
0.1566315223898382
 20
-29.37732544875218
 30
0.0
 10
-0.0368953352994355
 20
-29.43728503157218
 30
0.0
 10
-0.1897607132127931
 20
-29.48485032060018
 30
0.0
 10
-0.4724446945022902
 20
-29.58111571047979
 30
0.0
 10
-0.5997126669751842
 20
-29.62877812753763
 30
0.0
 10
-0.8105689321335072
 20
-29.72525416604535
 30
0.0
 10
-0.892799696334193
 20
-29.77302148636927
 30
0.0
 10
-1.000914970600228
 20
-29.86972532253336
 30
0.0
 10
-1.026824128765839
 20
-29.91760618664438
 30
0.0
 10
-1.02267349247845
 20
-29.97179308225208
 30
0.0
 10
-1.021948436071115
 20
-29.97696267070211
 30
0.0
 10
-1.020896149305912
 20
-29.98213445474633
 30
0.0
  0
SPLINE
  5
1B95
330
1B05
100
AcDbEntity
  8
0
100
AcDbSpline
210
0.0
220
0.0
230
1.0
 70
     8
 71
     3
 72
    14
 73
    10
 74
     0
 42
0.000000001
 43
0.0000000001
 40
0.0
 40
0.0
 40
0.0
 40
0.0
 40
0.0640257313183415
 40
0.0640257313183415
 40
0.1270099910762954
 40
0.1270099910762954
 40
0.1889536107505064
 40
0.1889536107505064
 40
0.221580338477302
 40
0.221580338477302
 40
0.221580338477302
 40
0.221580338477302
 10
-0.2540511595816444
 20
-27.25862767606286
 30
0.0
 10
-0.457807903996104
 20
-27.30539103640541
 30
0.0
 10
-0.6509027688737029
 20
-27.35207370951795
 30
0.0
 10
-0.9897990902775617
 20
-27.44643710977845
 30
0.0
 10
-1.13290965604393
 20
-27.49315696943867
 30
0.0
 10
-1.349715625688583
 20
-27.5876000406339
 30
0.0
 10
-1.422324675588055
 20
-27.63435918941166
 30
0.0
 10
-1.472537389734128
 20
-27.70712810192482
 30
0.0
 10
-1.47864740526769
 20
-27.7322152873861
 30
0.0
 10
-1.473516952056905
 20
-27.75743467136796
 30
0.0
  0
SPLINE
  5
1B96
330
1B05
100
AcDbEntity
  8
0
100
AcDbSpline
210
0.0
220
0.0
230
1.0
 70
     8
 71
     3
 72
    14
 73
    10
 74
     0
 42
0.000000001
 43
0.0000000001
 40
0.4694243860552826
 40
0.4694243860552826
 40
0.4694243860552826
 40
0.4694243860552826
 40
0.4807214152179162
 40
0.4807214152179162
 40
0.5306746697017774
 40
0.5306746697017774
 40
0.581690641651572
 40
0.581690641651572
 40
0.597585139173328
 40
0.597585139173328
 40
0.597585139173328
 40
0.597585139173328
 10
-0.8221912265683084
 20
-29.37059411814759
 30
0.0
 10
-0.7989799396597452
 20
-29.35882716476158
 30
0.0
 10
-0.7744401448067264
 20
-29.34707702699545
 30
0.0
 10
-0.6345844162981632
 20
-29.28338492280805
 30
0.0
 10
-0.4984860471491516
 20
-29.23261098000413
 30
0.0
 10
-0.196481500701957
 20
-29.13006482064209
 30
0.0
 10
-0.0333226824135163
 20
-29.07940231434146
 30
0.0
 10
0.181231493110956
 20
-29.01299500781608
 30
0.0
 10
0.2319050785846495
 20
-28.9973282409382
 30
0.0
 10
0.2820026564177944
 20
-28.98173368002034
 30
0.0
  0
SPLINE
  5
1B97
330
1B05
100
AcDbEntity
  8
0
100
AcDbSpline
210
0.0
220
0.0
230
1.0
 70
     8
 71
     3
 72
     8
 73
     4
 74
     0
 42
0.000000001
 43
0.0000000001
 40
0.0311274925767455
 40
0.0311274925767455
 40
0.0311274925767455
 40
0.0311274925767455
 40
0.0604150627066838
 40
0.0604150627066838
 40
0.0604150627066838
 40
0.0604150627066838
 10
1.353117836323232
 20
-28.34921335292801
 30
0.0
 10
1.44155814790623
 20
-28.38812023775887
 30
0.0
 10
1.530651824471664
 20
-28.42637516917543
 30
0.0
 10
1.620018913761235
 20
-28.46414794611746
 30
0.0
  0
SPLINE
  5
1B98
330
1B05
100
AcDbEntity
  8
0
100
AcDbSpline
210
0.0
220
0.0
230
1.0
 70
     8
 71
     3
 72
     8
 73
     4
 74
     0
 42
0.000000001
 43
0.0000000001
 40
0.0
 40
0.0
 40
0.0
 40
0.0
 40
0.0744508431293388
 40
0.0744508431293388
 40
0.0744508431293388
 40
0.0744508431293388
 10
-1.968268082156404
 20
-27.33850400258776
 30
0.0
 10
-1.739159989416014
 20
-27.24512571673089
 30
0.0
 10
-1.51096878800649
 20
-27.14963599996892
 30
0.0
 10
-1.287135503910365
 20
-27.04994709553929
 30
0.0
  0
SPLINE
  5
1B99
330
1B05
100
AcDbEntity
  8
0
100
AcDbSpline
210
0.0
220
0.0
230
1.0
 70
     8
 71
     3
 72
     8
 73
     4
 74
     0
 42
0.000000001
 43
0.0000000001
 40
0.0324484755035899
 40
0.0324484755035899
 40
0.0324484755035899
 40
0.0324484755035899
 40
0.0570322633062677
 40
0.0570322633062677
 40
0.0570322633062677
 40
0.0570322633062677
 10
-0.9944235763357889
 20
-30.11225196691019
 30
0.0
 10
-1.068158059462584
 20
-30.0790213522259
 30
0.0
 10
-1.142623982764011
 20
-30.04645097476857
 30
0.0
 10
-1.217318802078159
 20
-30.01436318102739
 30
0.0
  0
SPLINE
  5
1B9A
330
1B05
100
AcDbEntity
  8
0
100
AcDbSpline
210
0.0
220
0.0
230
1.0
 70
     8
 71
     3
 72
     8
 73
     4
 74
     0
 42
0.000000001
 43
0.0000000001
 40
0.0262494315615234
 40
0.0262494315615234
 40
0.0262494315615234
 40
0.0262494315615234
 40
0.0791863556629045
 40
0.0791863556629045
 40
0.0791863556629045
 40
0.0791863556629045
 10
-1.453728897896853
 20
-27.85469418623089
 30
0.0
 10
-1.616052338821027
 20
-27.78739071963377
 30
0.0
 10
-1.779648755828682
 20
-27.72172964213412
 30
0.0
 10
-1.943499648152055
 20
-27.6568988703767
 30
0.0
  0
SPLINE
  5
1B9B
330
1B05
100
AcDbEntity
  8
0
100
AcDbSpline
210
0.0
220
0.0
230
1.0
 70
     8
 71
     3
 72
     8
 73
     4
 74
     0
 42
0.000000001
 43
0.0000000001
 40
0.0357586659628276
 40
0.0357586659628276
 40
0.0357586659628276
 40
0.0357586659628276
 40
0.040960868527508
 40
0.040960868527508
 40
0.040960868527508
 40
0.040960868527508
 10
0.8809335748234335
 20
-30.67007314579991
 30
0.0
 10
0.8959765062119011
 20
-30.67753032189539
 30
0.0
 10
0.9110660992042403
 20
-30.68495105199499
 30
0.0
 10
0.9261937924316892
 20
-30.69233666129314
 30
0.0
  0
SPLINE
  5
1B9C
330
1B05
100
AcDbEntity
  8
0
100
AcDbSpline
210
0.0
220
0.0
230
1.0
 70
     8
 71
     3
 72
     8
 73
     4
 74
     0
 42
0.000000001
 43
0.0000000001
 40
0.0
 40
0.0
 40
0.0
 40
0.0
 40
0.0508312621486502
 40
0.0508312621486502
 40
0.0508312621486502
 40
0.0508312621486502
 10
-1.271328765062226
 20
-29.58293996825045
 30
0.0
 10
-1.118655539732656
 20
-29.51473292285846
 30
0.0
 10
-0.9676274357876335
 20
-29.44433478541189
 30
0.0
 10
-0.8221905678452168
 20
-29.37059652794428
 30
0.0
  0
ENDBLK
  5
1B07
330
1B05
100
AcDbEntity
  8
0
100
AcDbBlockEnd
  0
BLOCK
  5
1CC3
330
1CC2
100
AcDbEntity
  8
0
100
AcDbBlockBegin
  2
CSA50x35-Top
 70
     0
 10
0.0
 20
0.0
 30
0.0
  3
CSA50x35-Top
  1

  0
ARC
  5
1CC5
330
1CC2
100
AcDbEntity
  8
0
100
AcDbCircle
 10
0.8537376981837468
 20
1.463413219495634
 30
0.0
 40
0.220760846782645
100
AcDbArc
 50
350.4788036413578
 51
59.74122631974624
  0
ARC
  5
1CC6
330
1CC2
100
AcDbEntity
  8
0
100
AcDbCircle
 10
1.694221873409065
 20
0.007651925047757
 30
0.0
 40
0.2207608467826455
100
AcDbArc
 50
0.2587736802528733
 51
69.52119635864206
  0
ARC
  5
1CC7
330
1CC2
100
AcDbEntity
  8
0
100
AcDbCircle
 10
2.156304371304691
 20
1.244942909227528
 30
0.0
 40
1.099999999999999
100
AcDbArc
 50
170.4788036413578
 51
249.5211963586422
  0
ARC
  5
1CC8
330
1CC2
100
AcDbEntity
  8
0
100
AcDbCircle
 10
1.694221873409065
 20
-0.0076519250477586
 30
0.0
 40
0.2207608467826451
100
AcDbArc
 50
290.4788036413578
 51
359.7412263197472
  0
ARC
  5
1CC9
330
1CC2
100
AcDbEntity
  8
0
100
AcDbCircle
 10
0.8537376981837454
 20
-1.463413219495635
 30
0.0
 40
0.2207608467826448
100
AcDbArc
 50
300.2587736802535
 51
9.521196358642249
  0
ARC
  5
1CCA
330
1CC2
100
AcDbEntity
  8
0
100
AcDbCircle
 10
2.15630437130469
 20
-1.24494290922753
 30
0.0
 40
1.099999999999999
100
AcDbArc
 50
110.4788036413578
 51
189.5211963586421
  0
ARC
  5
1CCB
330
1CC2
100
AcDbEntity
  8
0
100
AcDbCircle
 10
0.8404841752253197
 20
-1.471065144543392
 30
0.0
 40
0.2207608467826454
100
AcDbArc
 50
230.4788036413579
 51
299.7412263197463
  0
ARC
  5
1CCC
330
1CC2
100
AcDbEntity
  8
0
100
AcDbCircle
 10
-0.8404841752253197
 20
-1.471065144543392
 30
0.0
 40
0.2207608467826455
100
AcDbArc
 50
240.2587736802537
 51
309.5211963586423
  0
ARC
  5
1CCD
330
1CC2
100
AcDbEntity
  8
0
100
AcDbCircle
 10
0.0000000000000001
 20
-2.489885818455061
 30
0.0
 40
1.1
100
AcDbArc
 50
50.47880364135783
 51
129.5211963586422
  0
ARC
  5
1CCE
330
1CC2
100
AcDbEntity
  8
0
100
AcDbCircle
 10
-0.8537376981837452
 20
-1.463413219495634
 30
0.0
 40
0.2207608467826457
100
AcDbArc
 50
170.4788036413579
 51
239.7412263197463
  0
ARC
  5
1CCF
330
1CC2
100
AcDbEntity
  8
0
100
AcDbCircle
 10
-1.694221873409065
 20
-0.0076519250477582
 30
0.0
 40
0.2207608467826452
100
AcDbArc
 50
180.2587736802528
 51
249.5211963586422
  0
ARC
  5
1CD0
330
1CC2
100
AcDbEntity
  8
0
100
AcDbCircle
 10
-2.15630437130469
 20
-1.24494290922753
 30
0.0
 40
1.099999999999999
100
AcDbArc
 50
350.4788036413578
 51
69.5211963586422
  0
ARC
  5
1CD1
330
1CC2
100
AcDbEntity
  8
0
100
AcDbCircle
 10
-1.694221873409065
 20
0.007651925047758
 30
0.0
 40
0.2207608467826451
100
AcDbArc
 50
110.4788036413578
 51
179.7412263197471
  0
ARC
  5
1CD2
330
1CC2
100
AcDbEntity
  8
0
100
AcDbCircle
 10
-0.8537376981837457
 20
1.463413219495634
 30
0.0
 40
0.2207608467826453
100
AcDbArc
 50
120.2587736802536
 51
189.5211963586421
  0
ARC
  5
1CD3
330
1CC2
100
AcDbEntity
  8
0
100
AcDbCircle
 10
-2.15630437130469
 20
1.244942909227529
 30
0.0
 40
1.099999999999999
100
AcDbArc
 50
290.4788036413578
 51
9.521196358642249
  0
ARC
  5
1CD4
330
1CC2
100
AcDbEntity
  8
0
100
AcDbCircle
 10
-0.0000000000000579
 20
0.000000000000068
 30
0.0
 40
1.914999999999912
100
AcDbArc
 50
119.7412263197455
 51
120.2587736802531
  0
ARC
  5
1CD5
330
1CC2
100
AcDbEntity
  8
0
100
AcDbCircle
 10
-0.0000000000075473
 20
0.0000000000000003
 30
0.0
 40
1.914999999992452
100
AcDbArc
 50
179.7412263197471
 51
180.2587736802542
  0
ARC
  5
1CD6
330
1CC2
100
AcDbEntity
  8
0
100
AcDbCircle
 10
0.0000000000033228
 20
0.0000000000057285
 30
0.0
 40
1.915000000006622
100
AcDbArc
 50
239.7412263197468
 51
240.2587736802523
  0
ARC
  5
1CD7
330
1CC2
100
AcDbEntity
  8
0
100
AcDbCircle
 10
0.0000000000067386
 20
-0.0000000000116562
 30
0.0
 40
1.914999999986536
100
AcDbArc
 50
299.7412263197448
 51
300.2587736802551
  0
ARC
  5
1CD8
330
1CC2
100
AcDbEntity
  8
0
100
AcDbCircle
 10
0.0000000000065162
 20
0.000000000011296
 30
0.0
 40
1.91499999998696
100
AcDbArc
 50
59.74122631974485
 51
60.25877368025525
  0
ARC
  5
1CD9
330
1CC2
100
AcDbEntity
  8
0
100
AcDbCircle
 10
0.0000000000077566
 20
-0.0000000000000006
 30
0.0
 40
1.914999999992243
100
AcDbArc
 50
359.7412263197472
 51
0.258773680254274
  0
ARC
  5
1CDA
330
1CC2
100
AcDbEntity
  8
0
100
AcDbCircle
 10
-0.8404841752253201
 20
1.471065144543391
 30
0.0
 40
0.2207608467826458
100
AcDbArc
 50
50.47880364135793
 51
119.7412263197462
  0
ARC
  5
1CDB
330
1CC2
100
AcDbEntity
  8
0
100
AcDbCircle
 10
0.8404841752253194
 20
1.471065144543393
 30
0.0
 40
0.2207608467826452
100
AcDbArc
 50
60.25877368025367
 51
129.5211963586422
  0
ARC
  5
1CDC
330
1CC2
100
AcDbEntity
  8
0
100
AcDbCircle
 10
-0.0000000000000006
 20
2.489885818455059
 30
0.0
 40
1.099999999999999
100
AcDbArc
 50
230.4788036413578
 51
309.5211963586422
  0
CIRCLE
  5
1CDD
330
1CC2
100
AcDbEntity
  8
0
100
AcDbCircle
 10
0.0
 20
0.0
 30
0.0
 40
4.150000000000001
  0
ENDBLK
  5
1CC4
330
1CC2
100
AcDbEntity
  8
0
100
AcDbBlockEnd
  0
BLOCK
  5
1CFD
330
1CFC
100
AcDbEntity
  8
0
100
AcDbBlockBegin
  2
CSA50x35-ISO
 70
     0
 10
0.0
 20
0.0
 30
0.0
  3
CSA50x35-ISO
  1

  0
LINE
  5
1CFF
330
1CFC
100
AcDbEntity
  8
0
100
AcDbLine
 10
1.113693180368816
 20
-7.867948072371775
 30
0.0
 11
1.113693180368797
 21
-8.725269482345909
 31
0.0
  0
SPLINE
  5
1D00
330
1CFC
100
AcDbEntity
  8
0
100
AcDbSpline
210
0.0
220
0.0
230
1.0
 70
     8
 71
     3
 72
     8
 73
     4
 74
     0
 42
0.000000001
 43
0.0000000001
 40
1.0
 40
1.0
 40
1.0
 40
1.0
 40
1.586775589068086
 40
1.586775589068086
 40
1.586775589068086
 40
1.586775589068086
 10
0.0000000000000027
 20
-15.38992282416846
 30
0.0
 10
0.0000000000000025
 20
-11.29753862003948
 30
0.0
 10
0.2069513007156206
 20
-8.828725534838582
 30
0.0
 10
1.113693180368816
 20
-7.867948072371775
 30
0.0
  0
LINE
  5
1D01
330
1CFC
100
AcDbEntity
  8
0
100
AcDbLine
 10
0.5618573947590724
 20
-12.52547033110184
 30
0.0
 11
0.0
 21
-15.38992282416846
 31
0.0
  0
LINE
  5
1D02
330
1CFC
100
AcDbEntity
  8
0
100
AcDbLine
 10
0.824341018909376
 20
-12.56669959036637
 30
0.0
 11
0.5618573947590723
 21
-12.52547033110184
 31
0.0
  0
LINE
  5
1D03
330
1CFC
100
AcDbEntity
  8
0
100
AcDbLine
 10
0.5980513417398496
 20
-12.34094692243976
 30
0.0
 11
0.824341018909376
 21
-12.56669959036637
 31
0.0
  0
LINE
  5
1D04
330
1CFC
100
AcDbEntity
  8
0
100
AcDbLine
 10
0.8819077904379385
 20
-10.89379446038934
 30
0.0
 11
0.5980513417398496
 21
-12.34094692243976
 31
0.0
  0
LINE
  5
1D05
330
1CFC
100
AcDbEntity
  8
0
100
AcDbLine
 10
1.290688114420587
 20
-10.9580030753618
 30
0.0
 11
0.8819077904379387
 21
-10.89379446038935
 31
0.0
  0
LINE
  5
1D06
330
1CFC
100
AcDbEntity
  8
0
100
AcDbLine
 10
0.9382746339729679
 20
-10.60642590922972
 30
0.0
 11
1.290688114420587
 21
-10.9580030753618
 31
0.0
  0
LINE
  5
1D07
330
1CFC
100
AcDbEntity
  8
0
100
AcDbLine
 10
1.113693180368815
 20
-9.712109847465843
 30
0.0
 11
0.9382746339729679
 21
-10.60642590922972
 31
0.0
  0
LINE
  5
1D08
330
1CFC
100
AcDbEntity
  8
0
100
AcDbLine
 10
1.113693180368814
 20
-9.230476250470189
 30
0.0
 11
1.113693180368815
 21
-9.712109847465843
 31
0.0
  0
LINE
  5
1D09
330
1CFC
100
AcDbEntity
  8
0
100
AcDbLine
 10
1.714733944377378
 20
-9.324883913302324
 30
0.0
 11
1.113693180368814
 21
-9.230476250470188
 31
0.0
  0
LINE
  5
1D0A
330
1CFC
100
AcDbEntity
  8
0
100
AcDbLine
 10
1.113693180368813
 20
-8.725269482345897
 30
0.0
 11
1.714733944377378
 21
-9.324883913302324
 31
0.0
  0
SPLINE
  5
1D0B
330
1CFC
100
AcDbEntity
  8
0
100
AcDbSpline
210
0.0
220
0.0
230
1.0
 70
     8
 71
     3
 72
    14
 73
    10
 74
     0
 42
0.000000001
 43
0.0000000001
 40
0.1005125559712217
 40
0.1005125559712217
 40
0.1005125559712217
 40
0.1005125559712217
 40
0.2282000586034313
 40
0.2282000586034313
 40
0.3765532403696903
 40
0.3765532403696903
 40
0.4839827466135811
 40
0.4839827466135811
 40
0.572739848594035
 40
0.572739848594035
 40
0.572739848594035
 40
0.572739848594035
 10
-0.3317809481675572
 20
-9.282721297469148
 30
0.0
 10
-0.2094968310659059
 20
-9.05744670135769
 30
0.0
 10
-0.0792270299916831
 20
-8.877354899910137
 30
0.0
 10
0.2059562080827768
 20
-8.546140056973058
 30
0.0
 10
0.3630062160081456
 20
-8.402816977021029
 30
0.0
 10
0.6222085897723071
 20
-8.193017472646534
 30
0.0
 10
0.7359515858081196
 20
-8.109948526396117
 30
0.0
 10
0.9421954388073487
 20
-7.97117049988306
 30
0.0
 10
1.031700138219707
 20
-7.915286777328245
 30
0.0
 10
1.113693180368815
 20
-7.867948072371779
 30
0.0
  0
SPLINE
  5
1D0C
330
1CFC
100
AcDbEntity
  8
0
100
AcDbSpline
210
0.0
220
0.0
230
1.0
 70
     8
 71
     3
 72
     8
 73
     4
 74
     0
 42
0.000000001
 43
0.0000000001
 40
0.0
 40
0.0
 40
0.0
 40
0.0
 40
0.0978355287959661
 40
0.0978355287959661
 40
0.0978355287959661
 40
0.0978355287959661
 10
-1.068955923526321
 20
-9.920729468577725
 30
0.0
 10
-0.8304693627330788
 20
-9.71383712481626
 30
0.0
 10
-0.5824441653748642
 20
-9.499334550673923
 30
0.0
 10
-0.3317809481675572
 20
-9.282721297469148
 30
0.0
  0
SPLINE
  5
1D0D
330
1CFC
100
AcDbEntity
  8
0
100
AcDbSpline
210
0.0
220
0.0
230
1.0
 70
     8
 71
     3
 72
     8
 73
     4
 74
     0
 42
0.000000001
 43
0.0000000001
 40
0.0064044792870387
 40
0.0064044792870387
 40
0.0064044792870387
 40
0.0064044792870387
 40
0.086959285698193
 40
0.086959285698193
 40
0.086959285698193
 40
0.086959285698193
 10
-0.5493968057110524
 20
-9.763099465261753
 30
0.0
 10
-0.7223009723186806
 20
-9.820783109709655
 30
0.0
 10
-0.910287565784975
 20
-9.875515323151798
 30
0.0
 10
-1.068955923526319
 20
-9.920729468577714
 30
0.0
  0
SPLINE
  5
1D0E
330
1CFC
100
AcDbEntity
  8
0
100
AcDbSpline
210
0.0
220
0.0
230
1.0
 70
     8
 71
     3
 72
     8
 73
     4
 74
     0
 42
0.000000001
 43
0.0000000001
 40
0.0000001000108896
 40
0.0000001000108896
 40
0.0000001000108896
 40
0.0000001000108896
 40
0.0207687931035047
 40
0.0207687931035047
 40
0.0207687931035047
 40
0.0207687931035047
 10
-0.6015776692420162
 20
-9.909501501982184
 30
0.0
 10
-0.5845398893101175
 20
-9.859082807647915
 30
0.0
 10
-0.5671374543273005
 20
-9.810313946024207
 30
0.0
 10
-0.5493968057110516
 20
-9.763099465261749
 30
0.0
  0
SPLINE
  5
1D0F
330
1CFC
100
AcDbEntity
  8
0
100
AcDbSpline
210
0.0
220
0.0
230
1.0
 70
     8
 71
     3
 72
     8
 73
     4
 74
     0
 42
0.000000001
 43
0.0000000001
 40
0.5689687755740786
 40
0.5689687755740786
 40
0.5689687755740786
 40
0.5689687755740786
 40
0.7348399373748489
 40
0.7348399373748489
 40
0.7348399373748489
 40
0.7348399373748489
 10
-0.6431210486120133
 20
-11.07758926610791
 30
0.0
 10
-0.6619931381817637
 20
-10.66995277558274
 30
0.0
 10
-0.6556912463668484
 20
-10.27129240775407
 30
0.0
 10
-0.6015776692419797
 20
-9.909501501982077
 30
0.0
  0
SPLINE
  5
1D10
330
1CFC
100
AcDbEntity
  8
0
100
AcDbSpline
210
0.0
220
0.0
230
1.0
 70
     8
 71
     3
 72
     8
 73
     4
 74
     0
 42
0.000000001
 43
0.0000000001
 40
0.0
 40
0.0
 40
0.0
 40
0.0
 40
0.0543841492853723
 40
0.0543841492853723
 40
0.0543841492853723
 40
0.0543841492853723
 10
-0.9898454450125743
 20
-11.41759102438243
 30
0.0
 10
-0.8652677183908384
 20
-11.29691787223423
 30
0.0
 10
-0.7491914174059979
 20
-11.18340021044752
 30
0.0
 10
-0.6431210486120133
 20
-11.07758926610791
 30
0.0
  0
SPLINE
  5
1D11
330
1CFC
100
AcDbEntity
  8
0
100
AcDbSpline
210
0.0
220
0.0
230
1.0
 70
     8
 71
     3
 72
     8
 73
     4
 74
     0
 42
0.000000001
 43
0.0000000001
 40
0.0281803901965668
 40
0.0281803901965668
 40
0.0281803901965668
 40
0.0281803901965668
 40
0.0636951687305395
 40
0.0636951687305395
 40
0.0636951687305395
 40
0.0636951687305395
 10
-0.6281267261787082
 20
-11.33434713919563
 30
0.0
 10
-0.7316617034246044
 20
-11.36009271454594
 30
0.0
 10
-0.8516341210519273
 20
-11.38747602351261
 30
0.0
 10
-0.9898454450125747
 20
-11.41759102438243
 30
0.0
  0
SPLINE
  5
1D12
330
1CFC
100
AcDbEntity
  8
0
100
AcDbSpline
210
0.0
220
0.0
230
1.0
 70
     8
 71
     3
 72
    10
 73
     6
 74
     0
 42
0.000000001
 43
0.0000000001
 40
0.3367860498960268
 40
0.3367860498960268
 40
0.3367860498960268
 40
0.3367860498960268
 40
0.4119257621696896
 40
0.4119257621696896
 40
0.5342474669008823
 40
0.5342474669008823
 40
0.5342474669008823
 40
0.5342474669008823
 10
-0.4631042197104448
 20
-12.7753466956569
 30
0.0
 10
-0.4905623230238366
 20
-12.58946112242104
 30
0.0
 10
-0.5157862764984229
 20
-12.40675557163008
 30
0.0
 10
-0.5746525174358177
 20
-11.93923358926743
 30
0.0
 10
-0.6070493333033963
 20
-11.63641417659694
 30
0.0
 10
-0.6281267261787082
 20
-11.33434713919563
 30
0.0
  0
SPLINE
  5
1D13
330
1CFC
100
AcDbEntity
  8
0
100
AcDbSpline
210
0.0
220
0.0
230
1.0
 70
     8
 71
     3
 72
    10
 73
     6
 74
     0
 42
0.000000001
 43
0.0000000001
 40
-0.0107409714920118
 40
-0.0107409714920118
 40
-0.0107409714920118
 40
-0.0107409714920118
 40
0.0
 40
0.0
 40
0.3154916394763516
 40
0.3154916394763516
 40
0.3154916394763516
 40
0.3154916394763516
 10
0.0000000000000027
 20
-15.38992282416846
 30
0.0
 10
-0.0050473406963182
 20
-15.36419055157439
 30
0.0
 10
-0.0100848158238098
 20
-15.33846273379648
 30
0.0
 10
-0.1627593843822667
 20
-14.55726432377426
 30
0.0
 10
-0.3188491141753427
 20
-13.72158870538369
 30
0.0
 10
-0.4392363174666697
 20
-12.93411247625346
 30
0.0
  0
SPLINE
  5
1D14
330
1CFC
100
AcDbEntity
  8
0
100
AcDbSpline
210
0.0
220
0.0
230
1.0
 70
     8
 71
     3
 72
     8
 73
     4
 74
     0
 42
0.000000001
 43
0.0000000001
 40
0.0
 40
0.0
 40
0.0
 40
0.0
 40
0.0285765779016082
 40
0.0285765779016082
 40
0.0285765779016082
 40
0.0285765779016082
 10
-0.6623669139452204
 20
-12.97854157078392
 30
0.0
 10
-0.5986042811678145
 20
-12.91436003079936
 30
0.0
 10
-0.5283380027276439
 20
-12.84306829357747
 30
0.0
 10
-0.4631042197104448
 20
-12.7753466956569
 30
0.0
  0
SPLINE
  5
1D15
330
1CFC
100
AcDbEntity
  8
0
100
AcDbSpline
210
0.0
220
0.0
230
1.0
 70
     8
 71
     3
 72
     8
 73
     4
 74
     0
 42
0.000000001
 43
0.0000000001
 40
0.003072515399155
 40
0.003072515399155
 40
0.003072515399155
 40
0.003072515399155
 40
0.0354193688326738
 40
0.0354193688326738
 40
0.0354193688326738
 40
0.0354193688326738
 10
-0.4392363174666697
 20
-12.93411247625346
 30
0.0
 10
-0.5124733756945609
 20
-12.94971528569356
 30
0.0
 10
-0.5937674745849336
 20
-12.96552378929526
 30
0.0
 10
-0.6623669139452206
 20
-12.97854157078392
 30
0.0
  0
LINE
  5
1D16
330
1CFC
100
AcDbEntity
  8
0
100
AcDbLine
 10
0.2586474190615382
 20
-14.13349676352778
 30
0.0
 11
0.2757741054249506
 21
-14.0503008238293
 31
0.0
  0
SPLINE
  5
1D17
330
1CFC
100
AcDbEntity
  8
0
100
AcDbSpline
210
0.0
220
0.0
230
1.0
 70
     8
 71
     3
 72
    10
 73
     6
 74
     0
 42
0.000000001
 43
0.0000000001
 40
0.0
 40
0.0
 40
0.0
 40
0.0
 40
0.028818829998181
 40
0.028818829998181
 40
0.0321373968793297
 40
0.0321373968793297
 40
0.0321373968793297
 40
0.0321373968793297
 10
0.2757741054249508
 20
-14.0503008238293
 30
0.0
 10
0.3303306466833272
 20
-13.97146736329781
 30
0.0
 10
0.3737752308390601
 20
-13.88616900054253
 30
0.0
 10
0.4038869987501017
 20
-13.78494965655644
 30
0.0
 10
0.4067646559453264
 20
-13.77447125281217
 30
0.0
 10
0.4094085278348468
 20
-13.76396985703567
 30
0.0
  0
SPLINE
  5
1D18
330
1CFC
100
AcDbEntity
  8
0
100
AcDbSpline
210
0.0
220
0.0
230
1.0
 70
     8
 71
     3
 72
    12
 73
     8
 74
     0
 42
0.000000001
 43
0.0000000001
 40
0.2614357855891167
 40
0.2614357855891167
 40
0.2614357855891167
 40
0.2614357855891167
 40
0.2806516175972645
 40
0.2806516175972645
 40
0.3157908128258802
 40
0.3157908128258802
 40
0.3207956403114604
 40
0.3207956403114604
 40
0.3207956403114604
 40
0.3207956403114604
 10
-0.669361954826573
 20
-12.73157290234445
 30
0.0
 10
-0.6675861831305299
 20
-12.73862372439222
 30
0.0
 10
-0.6587735348556817
 20
-12.74592460154657
 30
0.0
 10
-0.6143034870358698
 20
-12.76450011673549
 30
0.0
 10
-0.5632255361410261
 20
-12.77372460768499
 30
0.0
 10
-0.4838836397751999
 20
-12.77540891609849
 30
0.0
 10
-0.4736539805075274
 20
-12.77546164128272
 30
0.0
 10
-0.4631042197104449
 20
-12.7753466956569
 30
0.0
  0
SPLINE
  5
1D19
330
1CFC
100
AcDbEntity
  8
0
100
AcDbSpline
210
0.0
220
0.0
230
1.0
 70
     8
 71
     3
 72
    11
 73
     7
 74
     0
 42
0.000000001
 43
0.0000000001
 40
0.9323508417455473
 40
0.9323508417455473
 40
0.9323508417455473
 40
0.9323508417455473
 40
2.32229613675509
 40
2.32229613675509
 40
2.32229613675509
 40
2.432317080254779
 40
2.432317080254779
 40
2.432317080254779
 40
2.432317080254779
 10
-0.6623669139452195
 20
-12.97854157078392
 30
0.0
 10
-0.9825180231602733
 20
-12.91867256914708
 30
0.0
 10
-0.9871135281072183
 20
-12.74643641485585
 30
0.0
 10
-0.741278175553397
 20
-12.70096561179186
 30
0.0
 10
-0.7218191094083768
 20
-12.6973663761437
 30
0.0
 10
-0.7010800842321824
 20
-12.69465535820921
 30
0.0
 10
-0.6792396314692184
 20
-12.69282910979026
 30
0.0
  0
SPLINE
  5
1D1A
330
1CFC
100
AcDbEntity
  8
0
100
AcDbSpline
210
0.0
220
0.0
230
1.0
 70
     8
 71
     3
 72
    11
 73
     7
 74
     0
 42
0.000000001
 43
0.0000000001
 40
4.279319394782076
 40
4.279319394782076
 40
4.279319394782076
 40
4.279319394782076
 40
5.193840935830023
 40
5.193840935830023
 40
5.193840935830023
 40
5.654866776461624
 40
5.654866776461624
 40
5.654866776461624
 40
5.654866776461624
 10
0.5154988543145888
 20
-13.31078809964312
 30
0.0
 10
0.6076176853635952
 20
-13.5047537242436
 30
0.0
 10
0.6168882160326282
 20
-13.71708794900209
 30
0.0
 10
0.5410784917350089
 20
-13.89857345631926
 30
0.0
 10
0.5028615222010703
 20
-13.99006338281949
 30
0.0
 10
0.4472414927436303
 20
-14.07417480122132
 30
0.0
 10
0.3828525716178401
 20
-14.14788446525344
 30
0.0
  0
LINE
  5
1D1B
330
1CFC
100
AcDbEntity
  8
0
100
AcDbLine
 10
0.2586474190615382
 20
-14.13349676352778
 30
0.0
 11
0.3828525716178387
 21
-14.14788446525345
 31
0.0
  0
LINE
  5
1D1C
330
1CFC
100
AcDbEntity
  8
0
100
AcDbLine
 10
0.3828525716178387
 20
-14.14788446525345
 30
0.0
 11
0.2757741054249506
 21
-14.0503008238293
 31
0.0
  0
SPLINE
  5
1D1D
330
1CFC
100
AcDbEntity
  8
0
100
AcDbSpline
210
0.0
220
0.0
230
1.0
 70
     8
 71
     3
 72
     8
 73
     4
 74
     0
 42
0.000000001
 43
0.0000000001
 40
0.0
 40
0.0
 40
0.0
 40
0.0
 40
0.0062758984767297
 40
0.0062758984767297
 40
0.0062758984767297
 40
0.0062758984767297
 10
-1.714733944377374
 20
8.617628452584458
 30
0.0
 10
-1.711146778994203
 20
8.61907424874381
 30
0.0
 10
-1.707547831713341
 20
8.620512720068562
 30
0.0
 10
-1.703937196680505
 20
8.621943853078242
 30
0.0
  0
SPLINE
  5
1D1E
330
1CFC
100
AcDbEntity
  8
0
100
AcDbSpline
210
0.0
220
0.0
230
1.0
 70
     8
 71
     3
 72
    20
 73
    16
 74
     0
 42
0.000000001
 43
0.0000000001
 40
1.497738563043638
 40
1.497738563043638
 40
1.497738563043638
 40
1.497738563043638
 40
2.168407820789624
 40
2.168407820789624
 40
2.168407820789624
 40
3.251468151085609
 40
3.251468151085609
 40
3.251468151085609
 40
4.333789406213432
 40
4.333789406213432
 40
4.333789406213432
 40
5.415388919080976
 40
5.415388919080976
 40
5.415388919080976
 40
6.361677137967311
 40
6.361677137967311
 40
6.361677137967311
 40
6.361677137967311
 10
1.579461028838944
 20
8.236589943683799
 30
0.0
 10
1.987220279926805
 20
7.964086658055151
 30
0.0
 10
2.281161661427919
 20
7.615207725521085
 30
0.0
 10
2.382368103781028
 20
7.240897233251831
 30
0.0
 10
2.545805866310105
 20
6.636425147036217
 30
0.0
 10
2.199567726008613
 20
5.987191632315068
 30
0.0
 10
1.51636530462331
 20
5.563224889552111
 30
0.0
 10
0.8336290972893857
 20
5.13954745965838
 30
0.0
 10
-0.1560230410835268
 20
4.954481456430539
 30
0.0
 10
-0.9595026838590296
 20
5.04650955840594
 30
0.0
 10
-1.762446528958272
 20
5.138476291753484
 30
0.0
 10
-2.344813732711435
 20
5.498518177076707
 30
0.0
 10
-2.41677242738678
 20
5.893821324850526
 30
0.0
 10
-2.479728876800471
 20
6.239670881157469
 30
0.0
 10
-2.149657536881466
 20
6.595913715762748
 30
0.0
 10
-1.573623781393101
 20
6.790329698349076
 30
0.0
  0
SPLINE
  5
1D1F
330
1CFC
100
AcDbEntity
  8
0
100
AcDbSpline
210
0.0
220
0.0
230
1.0
 70
     8
 71
     3
 72
    20
 73
    16
 74
     0
 42
0.000000001
 43
0.0000000001
 40
8.060505870597632
 40
8.060505870597632
 40
8.060505870597632
 40
8.060505870597632
 40
8.656028604447557
 40
8.656028604447557
 40
8.656028604447557
 40
9.734912195184955
 40
9.734912195184955
 40
9.734912195184955
 40
10.81315902485812
 40
10.81315902485812
 40
10.81315902485812
 40
11.89078577535515
 40
11.89078577535515
 40
11.89078577535515
 40
12.6448624451469
 40
12.6448624451469
 40
12.6448624451469
 40
12.6448624451469
 10
2.022831982680049
 20
5.98200634631175
 30
0.0
 10
2.28492895724266
 20
5.689820895759968
 30
0.0
 10
2.432677970751107
 20
5.354388916433244
 30
0.0
 10
2.424663923645829
 20
5.01717136093427
 30
0.0
 10
2.410145210210014
 20
4.406248441527964
 30
0.0
 10
1.885059595203976
 20
3.810989764903588
 30
0.0
 10
1.109614867822443
 20
3.473112116675745
 30
0.0
 10
0.3346278107717059
 20
3.135433885078864
 30
0.0
 10
-0.6573448012102155
 20
3.064633515458294
 30
0.0
 10
-1.375221990890494
 20
3.242580547942224
 30
0.0
 10
-2.092686343097862
 20
3.420425246483442
 30
0.0
 10
-2.505857422844347
 20
3.834573232150109
 30
0.0
 10
-2.41039319090456
 20
4.227101428350968
 30
0.0
 10
-2.343591443386527
 20
4.501775711310239
 30
0.0
 10
-2.029737087120135
 20
4.755464006708763
 30
0.0
 10
-1.570476201066965
 20
4.910700465841198
 30
0.0
  0
SPLINE
  5
1D20
330
1CFC
100
AcDbEntity
  8
0
100
AcDbSpline
210
0.0
220
0.0
230
1.0
 70
     8
 71
     3
 72
    20
 73
    16
 74
     0
 42
0.000000001
 43
0.0000000001
 40
14.34369117777644
 40
14.34369117777644
 40
14.34369117777644
 40
14.34369117777644
 40
15.12011092461337
 40
15.12011092461337
 40
15.12011092461337
 40
16.19542226986648
 40
16.19542226986648
 40
16.19542226986648
 40
17.27019554042729
 40
17.27019554042729
 40
17.27019554042729
 40
18.34156925855193
 40
18.34156925855193
 40
18.34156925855193
 40
18.92804775232648
 40
18.92804775232648
 40
18.92804775232648
 40
18.92804775232648
 10
2.024962643010317
 20
4.105314578412851
 30
0.0
 10
2.362939527901754
 20
3.723551252686214
 30
0.0
 10
2.50101277786363
 20
3.266341381670868
 30
0.0
 10
2.377836650710201
 20
2.833687066885641
 30
0.0
 10
2.20724247464497
 20
2.234477560485785
 30
0.0
 10
1.542776292374353
 20
1.70313158773715
 30
0.0
 10
0.7118606567129858
 20
1.448685425737299
 30
0.0
 10
-0.118639197345259
 20
1.194366585969217
 30
0.0
 10
-1.080430981426516
 20
1.222852933257654
 30
0.0
 10
-1.699986167742475
 20
1.467401002836596
 30
0.0
 10
-2.317581675305091
 20
1.711175556727653
 30
0.0
 10
-2.569462613522774
 20
2.154917156811735
 30
0.0
 10
-2.332286343432841
 20
2.529063134612521
 30
0.0
 10
-2.202454166958612
 20
2.733873618387037
 30
0.0
 10
-1.928625687621967
 20
2.911527756811904
 30
0.0
 10
-1.568996098503037
 20
3.031098586171796
 30
0.0
  0
SPLINE
  5
1D21
330
1CFC
100
AcDbEntity
  8
0
100
AcDbSpline
210
0.0
220
0.0
230
1.0
 70
     8
 71
     3
 72
    20
 73
    16
 74
     0
 42
0.000000001
 43
0.0000000001
 40
20.62687648495602
 40
20.62687648495602
 40
20.62687648495602
 40
20.62687648495602
 40
21.63157700169567
 40
21.63157700169567
 40
21.63157700169567
 40
22.72424794677702
 40
22.72424794677702
 40
22.72424794677702
 40
23.81504816169885
 40
23.81504816169885
 40
23.81504816169885
 40
24.90405271885951
 40
24.90405271885951
 40
24.90405271885951
 40
25.21123305950607
 40
25.21123305950607
 40
25.21123305950607
 40
25.21123305950607
 10
2.029129394301784
 20
2.228444143845911
 30
0.0
 10
2.468074899454642
 20
1.73521555500834
 30
0.0
 10
2.543912429908664
 20
1.111073888657292
 30
0.0
 10
2.208441683730729
 20
0.5839650719477852
 30
0.0
 10
1.843597502637928
 20
0.0107032100113269
 30
0.0
 10
1.008801479972556
 20
-0.4269251184953338
 30
0.0
 10
0.126766763572399
 20
-0.5624427579140212
 30
0.0
 10
-0.7537578468318636
 20
-0.6977283815219582
 30
0.0
 10
-1.641999571059414
 20
-0.5308206013376893
 30
0.0
 10
-2.089488274348632
 20
-0.2008597742984741
 30
0.0
 10
-2.536240328935267
 20
0.1285578765368389
 30
0.0
 10
-2.52395624939077
 20
0.6010117813402616
 30
0.0
 10
-2.058820897233912
 20
0.9240021931884822
 30
0.0
 10
-1.927618107509294
 20
1.015109529778324
 30
0.0
 10
-1.762027288968997
 20
1.092810116664204
 30
0.0
 10
-1.572185384484512
 20
1.154127770198853
 30
0.0
  0
SPLINE
  5
1D22
330
1CFC
100
AcDbEntity
  8
0
100
AcDbSpline
210
0.0
220
0.0
230
1.0
 70
     8
 71
     3
 72
    23
 73
    19
 74
     0
 42
0.000000001
 43
0.0000000001
 40
26.91006179213561
 40
26.91006179213561
 40
26.91006179213561
 40
26.91006179213561
 40
27.07696908321793
 40
27.07696908321793
 40
27.07696908321793
 40
28.16102515708324
 40
28.16102515708324
 40
28.16102515708324
 40
29.24357422615022
 40
29.24357422615022
 40
29.24357422615022
 40
30.32468584390667
 40
30.32468584390667
 40
30.32468584390667
 40
31.40442863178461
 40
31.40442863178461
 40
31.40442863178461
 40
31.49441836668566
 40
31.49441836668566
 40
31.49441836668566
 40
31.49441836668566
 10
2.028434262298695
 20
0.3495665761405231
 30
0.0
 10
2.103034542453394
 20
0.2683085667970597
 30
0.0
 10
2.168090388049916
 20
0.1833723419343891
 30
0.0
 10
2.222112691309033
 20
0.0953665150999528
 30
0.0
 10
2.572985355963069
 20
-0.4762277543700133
 30
0.0
 10
2.44320762894811
 20
-1.157068985323996
 30
0.0
 10
1.897616926734406
 20
-1.66096477793761
 30
0.0
 10
1.352784679572967
 20
-2.16416007784089
 30
0.0
 10
0.4170042324745132
 20
-2.473790281965204
 30
0.0
 10
-0.4433102431125016
 20
-2.489284621173548
 30
0.0
 10
-1.302482359239112
 20
-2.50475838638775
 30
0.0
 10
-2.049336518305361
 20
-2.230910516979458
 30
0.0
 10
-2.312464500527125
 20
-1.857487995348932
 30
0.0
 10
-2.575259328023677
 20
-1.484538275875477
 30
0.0
 10
-2.344356563231703
 20
-1.032910416199861
 30
0.0
 10
-1.734336012233406
 20
-0.7800938288828308
 30
0.0
 10
-1.6834946560467
 20
-0.7590231647147805
 30
0.0
 10
-1.630201569441299
 20
-0.7394403209713185
 30
0.0
 10
-1.574733369337198
 20
-0.7213873852752162
 30
0.0
  0
SPLINE
  5
1D23
330
1CFC
100
AcDbEntity
  8
0
100
AcDbSpline
210
0.0
220
0.0
230
1.0
 70
     8
 71
     3
 72
    20
 73
    16
 74
     0
 42
0.000000001
 43
0.0000000001
 40
33.1932470993152
 40
33.1932470993152
 40
33.1932470993152
 40
33.1932470993152
 40
33.56007785589703
 40
33.56007785589703
 40
33.56007785589703
 40
34.63611733736399
 40
34.63611733736399
 40
34.63611733736399
 40
35.71105417570329
 40
35.71105417570329
 40
35.71105417570329
 40
36.81705548416099
 40
36.81705548416099
 40
36.81705548416099
 40
37.77760367386524
 40
37.77760367386524
 40
37.77760367386524
 40
37.77760367386524
 10
2.024842495104465
 20
-1.529891120917921
 30
0.0
 10
2.188594392465875
 20
-1.708847524042529
 30
0.0
 10
2.308281912028339
 20
-1.904370797259542
 30
0.0
 10
2.370687164785168
 20
-2.108279866210782
 30
0.0
 10
2.553743014417264
 20
-2.706414577883347
 30
0.0
 10
2.236236931542332
 20
-3.355904961160713
 30
0.0
 10
1.574803952074131
 20
-3.789225077370015
 30
0.0
 10
0.9140487586368189
 20
-4.222101160199088
 30
0.0
 10
-0.0620134183809148
 20
-4.425540894626296
 30
0.0
 10
-0.8727034571110701
 20
-4.352096981000932
 30
0.0
 10
-1.706821529550002
 20
-4.276530620568623
 30
0.0
 10
-2.327401019379979
 20
-3.915075611729781
 30
0.0
 10
-2.413680663784893
 20
-3.511512174183835
 30
0.0
 10
-2.488613446963094
 20
-3.161022417615511
 30
0.0
 10
-2.15808843196626
 20
-2.796778745268138
 30
0.0
 10
-1.573577459418476
 20
-2.599390688068972
 30
0.0
  0
SPLINE
  5
1D24
330
1CFC
100
AcDbEntity
  8
0
100
AcDbSpline
210
0.0
220
0.0
230
1.0
 70
     8
 71
     3
 72
    20
 73
    16
 74
     0
 42
0.000000001
 43
0.0000000001
 40
39.47643240649478
 40
39.47643240649478
 40
39.47643240649478
 40
39.47643240649478
 40
40.09131278605226
 40
40.09131278605226
 40
40.09131278605226
 40
41.1757999691115
 40
41.1757999691115
 40
41.1757999691115
 40
42.25730197057949
 40
42.25730197057949
 40
42.25730197057949
 40
43.33609488781122
 40
43.33609488781122
 40
43.33609488781122
 40
44.06078898104483
 40
44.06078898104483
 40
44.06078898104483
 40
44.06078898104483
 10
2.022658449712397
 20
-3.407695191514956
 30
0.0
 10
2.292945326065441
 20
-3.709473190863472
 30
0.0
 10
2.441320565987715
 20
-4.057384648334334
 30
0.0
 10
2.423428206447185
 20
-4.405417334880088
 30
0.0
 10
2.391870792612715
 20
-5.01925540874444
 30
0.0
 10
1.844693237806466
 20
-5.611332385130207
 30
0.0
 10
1.055452323078735
 20
-5.93966068338362
 30
0.0
 10
0.268383889028056
 20
-6.267085218450942
 30
0.0
 10
-0.7252541627811602
 20
-6.322802923789947
 30
0.0
 10
-1.431025019007514
 20
-6.132704106324366
 30
0.0
 10
-2.135027970321599
 20
-5.943081472637484
 30
0.0
 10
-2.52253572588746
 20
-5.521689330448237
 30
0.0
 10
-2.401545115212051
 20
-5.130573337705667
 30
0.0
 10
-2.320267995671635
 20
-4.867835749070894
 30
0.0
 10
-2.011918364735092
 20
-4.628332230927664
 30
0.0
 10
-1.570141579339784
 20
-4.479282124473722
 30
0.0
  0
SPLINE
  5
1D25
330
1CFC
100
AcDbEntity
  8
0
100
AcDbSpline
210
0.0
220
0.0
230
1.0
 70
     8
 71
     3
 72
    20
 73
    16
 74
     0
 42
0.000000001
 43
0.0000000001
 40
45.75961771367436
 40
45.75961771367436
 40
45.75961771367436
 40
45.75961771367436
 40
46.59084993892989
 40
46.59084993892989
 40
46.59084993892989
 40
47.67626025744884
 40
47.67626025744884
 40
47.67626025744884
 40
48.7558071619606
 40
48.7558071619606
 40
48.7558071619606
 40
49.83057968848244
 40
49.83057968848244
 40
49.83057968848244
 40
50.34397428822441
 40
50.34397428822441
 40
50.34397428822441
 40
50.34397428822441
 10
2.025537950680967
 20
-5.284152095037843
 30
0.0
 10
2.38665892663414
 20
-5.692902184601111
 30
0.0
 10
2.5159599308213
 20
-6.188749066540399
 30
0.0
 10
2.348191218168943
 20
-6.647204839271223
 30
0.0
 10
2.129121400728298
 20
-7.245849371072967
 30
0.0
 10
1.413651215867994
 20
-7.75915462739535
 30
0.0
 10
0.5599917994359574
 20
-7.984266987165198
 30
0.0
 10
-0.2890561272264676
 20
-8.208163284271051
 30
0.0
 10
-1.238071007485224
 20
-8.142168349822078
 30
0.0
 10
-1.81627307033156
 20
-7.872374474705976
 30
0.0
 10
-2.3919179907406
 20
-7.603773783446725
 30
0.0
 10
-2.575871728673404
 20
-7.14920611731566
 30
0.0
 10
-2.277566615200045
 20
-6.785191437328908
 30
0.0
 10
-2.135072989289962
 20
-6.611309833249587
 30
0.0
 10
-1.885275931301314
 20
-6.462729967915022
 30
0.0
 10
-1.56957158992621
 20
-6.358643897894554
 30
0.0
  0
SPLINE
  5
1D26
330
1CFC
100
AcDbEntity
  8
0
100
AcDbSpline
210
0.0
220
0.0
230
1.0
 70
     8
 71
     3
 72
    11
 73
     7
 74
     0
 42
0.000000001
 43
0.0000000001
 40
52.04280302085396
 40
52.04280302085396
 40
52.04280302085396
 40
52.04280302085396
 40
53.07330182077515
 40
53.07330182077515
 40
53.07330182077515
 40
53.40707511102649
 40
53.40707511102649
 40
53.40707511102649
 40
53.40707511102649
 10
2.029673059816945
 20
-7.161194579064633
 30
0.0
 10
2.482097316166528
 20
-7.666781637987973
 30
0.0
 10
2.545406144057753
 20
-8.310780654926785
 30
0.0
 10
2.181867439143147
 20
-8.846154160021342
 30
0.0
 10
2.06411911213652
 20
-9.019558899864286
 30
0.0
 10
1.905511407884208
 20
-9.181485353195997
 30
0.0
 10
1.714733944377378
 20
-9.324883913302324
 30
0.0
  0
SPLINE
  5
1D27
330
1CFC
100
AcDbEntity
  8
0
100
AcDbSpline
210
0.0
220
0.0
230
1.0
 70
     8
 71
     3
 72
     8
 73
     4
 74
     0
 42
0.000000001
 43
0.0000000001
 40
-53.4070751110265
 40
-53.4070751110265
 40
-53.4070751110265
 40
-53.4070751110265
 40
-52.62167694762903
 40
-52.62167694762903
 40
-52.62167694762903
 40
-52.62167694762903
 10
1.113693180368805
 20
-8.725269482345904
 30
0.0
 10
1.405257373185455
 20
-8.478687228131583
 30
0.0
 10
1.564067398364669
 20
-8.162706929874023
 30
0.0
 10
1.56801630814506
 20
-7.846947681553682
 30
0.0
  0
SPLINE
  5
1D28
330
1CFC
100
AcDbEntity
  8
0
100
AcDbSpline
210
0.0
220
0.0
230
1.0
 70
     8
 71
     3
 72
    14
 73
    10
 74
     0
 42
0.000000001
 43
0.0000000001
 40
-49.48008429403924
 40
-49.48008429403924
 40
-49.48008429403924
 40
-49.48008429403924
 40
-48.58010170388364
 40
-48.58010170388364
 40
-48.58010170388364
 40
-47.37563600112831
 40
-47.37563600112831
 40
-47.37563600112831
 40
-46.33849164044945
 40
-46.33849164044945
 40
-46.33849164044945
 40
-46.33849164044945
 10
-1.570303506563488
 20
-6.907908359366068
 30
0.0
 10
-1.564264230534761
 20
-7.090020587364445
 30
0.0
 10
-1.349166870741556
 20
-7.271953609500414
 30
0.0
 10
-0.9790571790972947
 20
-7.351864609279714
 30
0.0
 10
-0.4837315642253603
 20
-7.458811187535654
 30
0.0
 10
0.2567521895534895
 20
-7.368178419439272
 30
0.0
 10
0.801172425812912
 20
-7.062468607406509
 30
0.0
 10
1.26996317392989
 20
-6.799227232555682
 30
0.0
 10
1.567004358668235
 20
-6.385535274334968
 30
0.0
 10
1.573209651899099
 20
-5.969218862288996
 30
0.0
  0
SPLINE
  5
1D29
330
1CFC
100
AcDbEntity
  8
0
100
AcDbSpline
210
0.0
220
0.0
230
1.0
 70
     8
 71
     3
 72
    17
 73
    13
 74
     0
 42
0.000000001
 43
0.0000000001
 40
-43.19689898685965
 40
-43.19689898685965
 40
-43.19689898685965
 40
-43.19689898685965
 40
-42.5661718137502
 40
-42.5661718137502
 40
-42.5661718137502
 40
-41.36578886945975
 40
-41.36578886945975
 40
-41.36578886945975
 40
-40.16615309365178
 40
-40.16615309365178
 40
-40.16615309365178
 40
-40.05530633326986
 40
-40.05530633326986
 40
-40.05530633326986
 40
-40.05530633326986
 10
-1.566710053973595
 20
-5.030507185645061
 30
0.0
 10
-1.566132859912521
 20
-5.158637371710812
 30
0.0
 10
-1.467247300570765
 20
-5.286809616530598
 30
0.0
 10
-1.271968243071237
 20
-5.378367535864674
 30
0.0
 10
-0.9003184077804624
 20
-5.552618098499415
 30
0.0
 10
-0.2035896481241024
 20
-5.575264050764294
 30
0.0
 10
0.4053794587391277
 20
-5.36202413792735
 30
0.0
 10
1.013969517794644
 20
-5.148916954518824
 30
0.0
 10
1.495664500451686
 20
-4.706277190147445
 30
0.0
 10
1.565333887504371
 20
-4.225371313041468
 30
0.0
 10
1.571771362951769
 20
-4.180935443754454
 30
0.0
 10
1.574623893021446
 20
-4.136383743992433
 30
0.0
 10
1.57406125193666
 20
-4.091888705751713
 30
0.0
  0
SPLINE
  5
1D2A
330
1CFC
100
AcDbEntity
  8
0
100
AcDbSpline
210
0.0
220
0.0
230
1.0
 70
     8
 71
     3
 72
    17
 73
    13
 74
     0
 42
0.000000001
 43
0.0000000001
 40
-36.91371367968007
 40
-36.91371367968007
 40
-36.91371367968007
 40
-36.91371367968007
 40
-36.44831266799515
 40
-36.44831266799515
 40
-36.44831266799515
 40
-35.2213154326862
 40
-35.2213154326862
 40
-35.2213154326862
 40
-33.99704945291939
 40
-33.99704945291939
 40
-33.99704945291939
 40
-33.77212102609028
 40
-33.77212102609028
 40
-33.77212102609028
 40
-33.77212102609028
 10
-1.566960963626608
 20
-3.153237148832057
 30
0.0
 10
-1.569032358758364
 20
-3.247646816399711
 30
0.0
 10
-1.517138824205903
 20
-3.341971643448506
 30
0.0
 10
-1.407485631762762
 20
-3.421668221175628
 30
0.0
 10
-1.118392654754754
 20
-3.63178267748232
 30
0.0
 10
-0.4483653448578218
 20
-3.716819019034081
 30
0.0
 10
0.1910513638161562
 20
-3.549461778101237
 30
0.0
 10
0.8290447518997938
 20
-3.38247706888946
 30
0.0
 10
1.391971405975395
 20
-2.967459184997427
 30
0.0
 10
1.535325864978018
 20
-2.483749829285921
 30
0.0
 10
1.561663681657805
 20
-2.394880264811509
 30
0.0
 10
1.573507595130222
 20
-2.304541180617967
 30
0.0
 10
1.571940552944694
 20
-2.214271575361419
 30
0.0
  0
SPLINE
  5
1D2B
330
1CFC
100
AcDbEntity
  8
0
100
AcDbSpline
210
0.0
220
0.0
230
1.0
 70
     8
 71
     3
 72
    17
 73
    13
 74
     0
 42
0.000000001
 43
0.0000000001
 40
-30.63052837250049
 40
-30.63052837250049
 40
-30.63052837250049
 40
-30.63052837250049
 40
-30.33953213823947
 40
-30.33953213823947
 40
-30.33953213823947
 40
-29.1250954435422
 40
-29.1250954435422
 40
-29.1250954435422
 40
-27.91285287328964
 40
-27.91285287328964
 40
-27.91285287328964
 40
-27.48893571891069
 40
-27.48893571891069
 40
-27.48893571891069
 40
-27.48893571891069
 10
-1.570508538930506
 20
-1.275409912090235
 30
0.0
 10
-1.572542624488152
 20
-1.334263892750227
 30
0.0
 10
-1.552616282990683
 20
-1.393152072870886
 30
0.0
 10
-1.508784676301636
 20
-1.448656060726987
 30
0.0
 10
-1.325858901726247
 20
-1.680295070508877
 30
0.0
 10
-0.7390918234145682
 20
-1.829121821078645
 30
0.0
 10
-0.1028740623228221
 20
-1.732173580105702
 30
0.0
 10
0.5321942432659199
 20
-1.635400495652912
 30
0.0
 10
1.173804144821099
 20
-1.292196584095952
 30
0.0
 10
1.435588368635083
 20
-0.8365060738587315
 30
0.0
 10
1.527133432258286
 20
-0.677152633287006
 30
0.0
 10
1.570100917807993
 20
-0.5067882214568109
 30
0.0
 10
1.567963522415715
 20
-0.3363589956855706
 30
0.0
  0
SPLINE
  5
1D2C
330
1CFC
100
AcDbEntity
  8
0
100
AcDbSpline
210
0.0
220
0.0
230
1.0
 70
     8
 71
     3
 72
    17
 73
    13
 74
     0
 42
0.000000001
 43
0.0000000001
 40
-24.3473430653209
 40
-24.3473430653209
 40
-24.3473430653209
 40
-24.3473430653209
 40
-24.28828452243574
 40
-24.28828452243574
 40
-24.28828452243574
 40
-23.08382138548927
 40
-23.08382138548927
 40
-23.08382138548927
 40
-21.88106181932625
 40
-21.88106181932625
 40
-21.88106181932625
 40
-21.20575041173111
 40
-21.20575041173111
 40
-21.20575041173111
 40
-21.20575041173111
 10
-1.574734384252302
 20
0.6031327643576834
 30
0.0
 10
-1.574901934531903
 20
0.5911611183727961
 30
0.0
 10
-1.574084157206388
 20
0.5791693795834063
 30
0.0
 10
-1.572254067973283
 20
0.5671832999582183
 30
0.0
 10
-1.534930508824796
 20
0.3227344808751198
 30
0.0
 10
-1.079102841668013
 20
0.1045407159719214
 30
0.0
 10
-0.4763777469434963
 20
0.1141149747271264
 30
0.0
 10
0.1254948643547291
 20
0.1236756918246495
 30
0.0
 10
0.8345627560338247
 20
0.3675009907420246
 30
0.0
 10
1.229306896929148
 20
0.7718785560348085
 30
0.0
 10
1.450943231344988
 20
0.9989237531800142
 30
0.0
 10
1.565426985161459
 20
1.270744310158857
 30
0.0
 10
1.566936800975605
 20
1.542453208683614
 30
0.0
  0
SPLINE
  5
1D2D
330
1CFC
100
AcDbEntity
  8
0
100
AcDbSpline
210
0.0
220
0.0
230
1.0
 70
     8
 71
     3
 72
    14
 73
    10
 74
     0
 42
0.000000001
 43
0.0000000001
 40
-18.06415775814131
 40
-18.06415775814131
 40
-18.06415775814131
 40
-18.06415775814131
 40
-17.02025059097029
 40
-17.02025059097029
 40
-17.02025059097029
 40
-15.79851284431317
 40
-15.79851284431317
 40
-15.79851284431317
 40
-14.92256510455151
 40
-14.92256510455151
 40
-14.92256510455151
 40
-14.92256510455151
 10
-1.572801941477377
 20
2.481600322797017
 30
0.0
 10
-1.565963339297993
 20
2.270698432647826
 30
0.0
 10
-1.265705878762739
 20
2.062260540777935
 30
0.0
 10
-0.7919837798641611
 20
2.007153281776723
 30
0.0
 10
-0.237562670544184
 20
1.94265844875527
 30
0.0
 10
0.5157226019298629
 20
2.100987321234009
 30
0.0
 10
1.008423893769503
 20
2.459810712027017
 30
0.0
 10
1.36167530483989
 20
2.717075856693909
 30
0.0
 10
1.563655398561923
 20
3.068959883533728
 30
0.0
 10
1.56942763135133
 20
3.420815225525748
 30
0.0
  0
SPLINE
  5
1D2E
330
1CFC
100
AcDbEntity
  8
0
100
AcDbSpline
210
0.0
220
0.0
230
1.0
 70
     8
 71
     3
 72
    14
 73
    10
 74
     0
 42
0.000000001
 43
0.0000000001
 40
-11.78097245096172
 40
-11.78097245096172
 40
-11.78097245096172
 40
-11.78097245096172
 40
-10.95666232854242
 40
-10.95666232854242
 40
-10.95666232854242
 40
-9.755470676102675
 40
-9.755470676102675
 40
-9.755470676102675
 40
-8.63937979737193
 40
-8.63937979737193
 40
-8.63937979737193
 40
-8.63937979737193
 10
-1.568811278891331
 20
4.359728607194272
 30
0.0
 10
-1.564043193332147
 20
4.192694525649068
 30
0.0
 10
-1.387207399014927
 20
4.025486700524999
 30
0.0
 10
-1.0695250946479
 20
3.937943089533323
 30
0.0
 10
-0.6065957653154776
 20
3.810373802334709
 30
0.0
 10
0.1251883715714456
 20
3.867966909336264
 30
0.0
 10
0.6917363935978786
 20
4.147547456349486
 30
0.0
 10
1.218146212099648
 20
4.407320572286669
 30
0.0
 10
1.568321875520303
 20
4.850244928836112
 30
0.0
 10
1.573998337561289
 20
5.298303123805407
 30
0.0
  0
SPLINE
  5
1D2F
330
1CFC
100
AcDbEntity
  8
0
100
AcDbSpline
210
0.0
220
0.0
230
1.0
 70
     8
 71
     3
 72
    17
 73
    13
 74
     0
 42
0.000000001
 43
0.0000000001
 40
-5.49778714378214
 40
-5.49778714378214
 40
-5.49778714378214
 40
-5.49778714378214
 40
-4.883616654361672
 40
-4.883616654361672
 40
-4.883616654361672
 40
-3.650423654927962
 40
-3.650423654927962
 40
-3.650423654927962
 40
-2.438042589173933
 40
-2.438042589173933
 40
-2.438042589173933
 40
-2.356194490192336
 40
-2.356194490192336
 40
-2.356194490192336
 40
-2.356194490192336
 10
-1.5665788395257
 20
6.237076538949644
 30
0.0
 10
-1.566355417853417
 20
6.11230623637666
 30
0.0
 10
-1.472987218031116
 20
5.987519946559936
 30
0.0
 10
-1.287171520485191
 20
5.89656845215496
 30
0.0
 10
-0.91407215907701
 20
5.713946935621196
 30
0.0
 10
-0.1927616913244504
 20
5.689480352422111
 30
0.0
 10
0.4300614346363546
 20
5.914406476215201
 30
0.0
 10
1.042373510341749
 20
6.135536643030463
 30
0.0
 10
1.517689221467095
 20
6.590154503064661
 30
0.0
 10
1.569727394313048
 20
7.077194773817309
 30
0.0
 10
1.573240502231199
 20
7.110074964224929
 30
0.0
 10
1.574802837747278
 20
7.142988351706245
 30
0.0
 10
1.574484992454527
 20
7.175866116343336
 30
0.0
  0
LINE
  5
1D30
330
1CFC
100
AcDbEntity
  8
0
100
AcDbLine
 10
-1.714733944377374
 20
8.617628452584458
 30
0.0
 11
-1.701971934671469
 21
8.615623877218656
 31
0.0
  0
SPLINE
  5
1D31
330
1CFC
100
AcDbEntity
  8
0
100
AcDbSpline
210
0.0
220
0.0
230
1.0
 70
     8
 71
     3
 72
    14
 73
    10
 74
     0
 42
0.000000001
 43
0.0000000001
 40
0.1262020230672685
 40
0.1262020230672685
 40
0.1262020230672685
 40
0.1262020230672685
 40
0.1272578828834946
 40
0.1272578828834946
 40
0.1908868243252418
 40
0.1908868243252418
 40
0.2335634165254884
 40
0.2335634165254884
 40
0.2762400087257349
 40
0.2762400087257349
 40
0.2762400087257349
 40
0.2762400087257349
 10
-1.574999999792803
 20
8.066633219855601
 30
0.0
 10
-1.5749999999947
 20
8.065156991035172
 30
0.0
 10
-1.57498859869678
 20
8.063680527438636
 30
0.0
 10
-1.573590985583178
 20
7.973216144449102
 30
0.0
 10
-1.530799111220918
 20
7.885270955939525
 30
0.0
 10
-1.394270074902283
 20
7.752678660748038
 30
0.0
 10
-1.322555696234892
 20
7.703902363648264
 30
0.0
 10
-1.149107438364824
 20
7.61931448808522
 30
0.0
 10
-1.048144116090148
 20
7.583880020807804
 30
0.0
 10
-0.9356091220522079
 20
7.556981709066899
 30
0.0
  0
SPLINE
  5
1D32
330
1CFC
100
AcDbEntity
  8
0
100
AcDbSpline
210
0.0
220
0.0
230
1.0
 70
     8
 71
     3
 72
    17
 73
    13
 74
     0
 42
0.000000001
 43
0.0000000001
 40
0.0
 40
0.0
 40
0.0
 40
0.0
 40
1.091967005799007
 40
1.091967005799007
 40
1.091967005799007
 40
2.190794468424308
 40
2.190794468424308
 40
2.190794468424308
 40
3.321065209891517
 40
3.321065209891517
 40
3.321065209891517
 40
3.524036665006878
 40
3.524036665006878
 40
3.524036665006878
 40
3.524036665006878
 10
-1.714733944377374
 20
8.617628452584458
 30
0.0
 10
-2.285573814386604
 20
8.335293655954201
 30
0.0
 10
-2.409734500795446
 20
7.889490458491553
 30
0.0
 10
-2.096326425543554
 20
7.570874389857569
 30
0.0
 10
-1.780949314086486
 20
7.250256564969578
 30
0.0
 10
-1.049231118823595
 20
7.075797806203752
 30
0.0
 10
-0.3245645129269141
 20
7.159834843459163
 30
0.0
 10
0.4208386461882209
 20
7.246276625850047
 30
0.0
 10
1.119313536046173
 20
7.600157961864384
 30
0.0
 10
1.427928652097547
 20
8.049025309053254
 30
0.0
 10
1.48334905437588
 20
8.12963188876037
 30
0.0
 10
1.527300365078376
 20
8.212812831190028
 30
0.0
 10
1.559384545652763
 20
8.297119293341747
 30
0.0
  0
SPLINE
  5
1D33
330
1CFC
100
AcDbEntity
  8
0
100
AcDbSpline
210
0.0
220
0.0
230
1.0
 70
     8
 71
     3
 72
    16
 73
    12
 74
     0
 42
0.000000001
 43
0.0000000001
 40
0.0
 40
0.0
 40
0.0
 40
0.0
 40
0.0637351496279006
 40
0.0637351496279006
 40
0.1284458354677771
 40
0.1284458354677771
 40
0.1941322419575149
 40
0.1941322419575149
 40
0.2466079863305722
 40
0.2466079863305722
 40
0.2997107775606338
 40
0.2997107775606338
 40
0.2997107775606338
 40
0.2997107775606338
 10
-0.9356091220522067
 20
7.556981709066898
 30
0.0
 10
-0.772504308460209
 20
7.509998090202659
 30
0.0
 10
-0.5847692860265581
 20
7.48204520406615
 30
0.0
 10
-0.1791226862835126
 20
7.471183328128891
 30
0.0
 10
0.0351024772987835
 20
7.48907821326439
 30
0.0
 10
0.4616953494554537
 20
7.573939456665965
 30
0.0
 10
0.6696829499129943
 20
7.640782937198435
 30
0.0
 10
1.010186527835409
 20
7.800856200289551
 30
0.0
 10
1.147346056012007
 20
7.885074929894004
 30
0.0
 10
1.385442127262419
 20
8.07675811338605
 30
0.0
 10
1.484449468091907
 20
8.183296299799298
 30
0.0
 10
1.559384545652763
 20
8.297119293341744
 30
0.0
  0
ELLIPSE
  5
1D34
330
1CFC
100
AcDbEntity
  8
0
100
AcDbEllipse
 10
0.0000000000000025
 20
8.288478022735599
 30
0.0
 11
1.575000000000002
 21
0.0000000000000002
 31
0.0
210
0.0
220
0.0
230
1.0
 40
0.5773502691896259
 41
5.239962659863259
 42
6.105474706334472
  0
ELLIPSE
  5
1D35
330
1CFC
100
AcDbEntity
  8
0
100
AcDbEllipse
 10
0.000000000000003
 20
8.288478022735599
 30
0.0
 11
-1.574999999999999
 21
0.0
 31
0.0
210
0.0
220
0.0
230
1.0
 40
0.5773502691896261
 41
0.1777106008451103
 42
0.934727648876546
  0
ELLIPSE
  5
1D36
330
1CFC
100
AcDbEntity
  8
0
100
AcDbEllipse
 10
0.0000000000000041
 20
-9.06911878998526
 30
0.0
 11
1.574999999999998
 21
-0.0000000000000001
 31
0.0
210
0.0
220
0.0
230
1.0
 40
0.5773502691896259
 41
5.497787143782137
 42
6.031959761760972
  0
ELLIPSE
  5
1D37
330
1CFC
100
AcDbEntity
  8
0
100
AcDbEllipse
 10
0.0000000000000285
 20
-9.069118789985228
 30
0.0
 11
1.575000000000057
 21
0.000000000000094
 31
0.0
210
0.0
220
0.0
230
1.0
 40
0.5773502691896258
 41
4.167880592484662
 42
4.32047921969017
  0
ELLIPSE
  5
1D38
330
1CFC
100
AcDbEntity
  8
0
100
AcDbEllipse
 10
0.0000000000000037
 20
15.39199827680682
 30
0.0
 11
2.0
 21
0.0
 31
0.0
210
0.0
220
0.0
230
1.0
 40
0.5773502691896259
 41
0.0
 42
6.283185307179586
  0
ELLIPSE
  5
1D39
330
1CFC
100
AcDbEntity
  8
0
100
AcDbEllipse
 10
0.0000000000000031
 20
14.45303859001418
 30
0.0
 11
-4.150000000000001
 21
0.0000000000000006
 31
0.0
210
0.0
220
0.0
230
1.0
 40
0.5773502691896259
 41
5.791750395890963
 42
9.916212872058
  0
ELLIPSE
  5
1D3A
330
1CFC
100
AcDbEntity
  8
0
100
AcDbEllipse
 10
0.0000000000000035
 20
11.14621605598264
 30
0.0
 11
-2.449999999999999
 21
0.0000000000000005
 31
0.0
210
0.0
220
0.0
230
1.0
 40
0.577350269189626
 41
0.0000000000000029
 42
3.141592653589795
  0
ELLIPSE
  5
1D3B
330
1CFC
100
AcDbEntity
  8
0
100
AcDbEllipse
 10
0.0000000000000034
 20
13.18745750830196
 30
0.0
 11
-4.15
 21
0.0000000000000005
 31
0.0
210
0.0
220
0.0
230
1.0
 40
0.5773502691896259
 41
0.0000000000000016
 42
3.141592653589793
  0
LINE
  5
1D3C
330
1CFC
100
AcDbEntity
  8
0
100
AcDbLine
 10
-1.574999999999997
 20
-8.842226536623684
 30
0.0
 11
-1.574999999999997
 21
-7.967546567073089
 31
0.0
  0
LINE
  5
1D3D
330
1CFC
100
AcDbEntity
  8
0
100
AcDbLine
 10
-1.574999999999997
 20
-6.908564589781702
 30
0.0
 11
-1.574999999999997
 21
-6.089604430939312
 31
0.0
  0
LINE
  5
1D3E
330
1CFC
100
AcDbEntity
  8
0
100
AcDbLine
 10
-1.574999999999997
 20
-5.030622453647937
 30
0.0
 11
-1.574999999999997
 21
-4.211662294805547
 31
0.0
  0
LINE
  5
1D3F
330
1CFC
100
AcDbEntity
  8
0
100
AcDbLine
 10
-1.574999999999997
 20
-3.152680317514162
 30
0.0
 11
-1.574999999999997
 21
-2.333720158671777
 31
0.0
  0
LINE
  5
1D40
330
1CFC
100
AcDbEntity
  8
0
100
AcDbLine
 10
-1.574999999999997
 20
-1.274738181380394
 30
0.0
 11
-1.574999999999997
 21
-0.4557780225380071
 31
0.0
  0
LINE
  5
1D41
330
1CFC
100
AcDbEntity
  8
0
100
AcDbLine
 10
-1.574999999999997
 20
0.6032039547533752
 30
0.0
 11
-1.574999999999997
 21
1.422164113595763
 31
0.0
  0
LINE
  5
1D42
330
1CFC
100
AcDbEntity
  8
0
100
AcDbLine
 10
-1.574999999999997
 20
2.481146090887145
 30
0.0
 11
-1.574999999999997
 21
3.300106249729534
 31
0.0
  0
LINE
  5
1D43
330
1CFC
100
AcDbEntity
  8
0
100
AcDbLine
 10
-1.574999999999997
 20
4.359088227020917
 30
0.0
 11
-1.574999999999997
 21
5.178048385863305
 31
0.0
  0
LINE
  5
1D44
330
1CFC
100
AcDbEntity
  8
0
100
AcDbLine
 10
-1.574999999999997
 20
6.237030363154687
 30
0.0
 11
-1.574999999999997
 21
7.268342142772747
 31
0.0
  0
LINE
  5
1D45
330
1CFC
100
AcDbEntity
  8
0
100
AcDbLine
 10
-1.574999999999997
 20
8.066633223953886
 30
0.0
 11
-1.574999999999997
 21
8.207466212412219
 31
0.0
  0
LINE
  5
1D46
330
1CFC
100
AcDbEntity
  8
0
100
AcDbLine
 10
1.575000000000003
 20
-7.847535657848592
 30
0.0
 11
1.575000000000003
 21
-7.544980902237239
 31
0.0
  0
LINE
  5
1D47
330
1CFC
100
AcDbEntity
  8
0
100
AcDbLine
 10
1.575000000000003
 20
-5.969593521714817
 30
0.0
 11
1.575000000000003
 21
-5.667038766103473
 31
0.0
  0
LINE
  5
1D48
330
1CFC
100
AcDbEntity
  8
0
100
AcDbLine
 10
1.575000000000003
 20
-4.09165138558105
 30
0.0
 11
1.575000000000003
 21
-3.789096629969701
 31
0.0
  0
LINE
  5
1D49
330
1CFC
100
AcDbEntity
  8
0
100
AcDbLine
 10
1.575000000000003
 20
-2.213709249447277
 30
0.0
 11
1.575000000000003
 21
-1.911154493835926
 31
0.0
  0
LINE
  5
1D4A
330
1CFC
100
AcDbEntity
  8
0
100
AcDbLine
 10
1.575000000000003
 20
-0.3357671133135098
 30
0.0
 11
1.575000000000003
 21
-0.033212357702157
 31
0.0
  0
LINE
  5
1D4B
330
1CFC
100
AcDbEntity
  8
0
100
AcDbLine
 10
1.575000000000003
 20
1.54217502282026
 30
0.0
 11
1.575000000000003
 21
1.844729778431613
 31
0.0
  0
LINE
  5
1D4C
330
1CFC
100
AcDbEntity
  8
0
100
AcDbLine
 10
1.575000000000003
 20
3.42011715895403
 30
0.0
 11
1.575000000000003
 21
3.722671914565384
 31
0.0
  0
LINE
  5
1D4D
330
1CFC
100
AcDbEntity
  8
0
100
AcDbLine
 10
1.575000000000003
 20
5.298059295087801
 30
0.0
 11
1.575000000000003
 21
5.600614050699154
 31
0.0
  0
LINE
  5
1D4E
330
1CFC
100
AcDbEntity
  8
0
100
AcDbLine
 10
1.575000000000003
 20
7.176001431221572
 30
0.0
 11
1.575000000000003
 21
8.207466212412221
 31
0.0
  0
LINE
  5
1D4F
330
1CFC
100
AcDbEntity
  8
0
100
AcDbLine
 10
1.361695642794022
 20
-9.981999978785109
 30
0.0
 11
1.534291714553717
 21
-9.29654119478144
 31
0.0
  0
LINE
  5
1D50
330
1CFC
100
AcDbEntity
  8
0
100
AcDbLine
 10
0.0
 20
-15.38992282416846
 30
0.0
 11
-0.6097142478686765
 21
-12.96846570366306
 31
0.0
  0
LINE
  5
1D51
330
1CFC
100
AcDbEntity
  8
0
100
AcDbLine
 10
-0.6693605196134591
 20
-12.73158278689856
 30
0.0
 11
-1.000922785409545
 21
-11.41479576378185
 31
0.0
  0
LINE
  5
1D52
330
1CFC
100
AcDbEntity
  8
0
100
AcDbLine
 10
0.0
 20
-15.38992282416846
 30
0.0
 11
0.3147278568609629
 21
-14.13999302068859
 31
0.0
  0
LINE
  5
1D53
330
1CFC
100
AcDbEntity
  8
0
100
AcDbLine
 10
0.4094089675376251
 20
-13.76397056356742
 30
0.0
 11
0.7151943340693543
 21
-12.54955552287759
 31
0.0
  0
LINE
  5
1D54
330
1CFC
100
AcDbEntity
  8
0
100
AcDbLine
 10
-1.145503857241657
 20
-10.8405974945074
 30
0.0
 11
-1.397058285907386
 21
-9.841558576495286
 31
0.0
  0
LINE
  5
1D55
330
1CFC
100
AcDbEntity
  8
0
100
AcDbLine
 10
0.8855523051658236
 20
-11.87298527117626
 30
0.0
 11
1.122589932563651
 21
-10.93159928143341
 31
0.0
  0
SPLINE
  5
1D56
330
1CFC
100
AcDbEntity
  8
0
100
AcDbSpline
210
0.0
220
0.0
230
1.0
 70
     8
 71
     3
 72
    18
 73
    14
 74
     0
 42
0.000000001
 43
0.0000000001
 40
1.27683307468607
 40
1.27683307468607
 40
1.27683307468607
 40
1.27683307468607
 40
1.55722341609577
 40
1.55722341609577
 40
1.930827097059657
 40
1.930827097059657
 40
2.360407835777328
 40
2.360407835777328
 40
2.791122779161649
 40
2.791122779161649
 40
3.220353282790604
 40
3.220353282790604
 40
3.435555905698619
 40
3.435555905698619
 40
3.435555905698619
 40
3.435555905698619
 10
3.658875072989025
 20
15.58369226529228
 30
0.0
 10
3.373847025246646
 20
15.89114922338949
 30
0.0
 10
3.064863438065246
 20
16.12435193854481
 30
0.0
 10
2.335312573145598
 20
16.55715036979797
 30
0.0
 10
1.909072831463065
 20
16.72160854541607
 30
0.0
 10
0.985295169166639
 20
16.96322685128983
 30
0.0
 10
0.485364893189522
 20
17.02221704400387
 30
0.0
 10
-0.5161140480076459
 20
17.01978085574304
 30
0.0
 10
-1.017223456259743
 20
16.95807432117024
 30
0.0
 10
-2.005781471740724
 20
16.69290685921177
 30
0.0
 10
-2.495448152277375
 20
16.49270993911256
 30
0.0
 10
-3.206611566390557
 20
16.01175535181024
 30
0.0
 10
-3.440112960256738
 20
15.81966880956689
 30
0.0
 10
-3.658875072989016
 20
15.58369226529228
 30
0.0
  0
LINE
  5
1D57
330
1CFC
100
AcDbEntity
  8
0
100
AcDbLine
 10
-1.550195300196073
 20
8.127730258365453
 30
0.0
 11
-2.411414911416113
 21
10.89616397807352
 31
0.0
  0
LINE
  5
1D58
330
1CFC
100
AcDbEntity
  8
0
100
AcDbLine
 10
1.550195300196079
 20
8.127730258365453
 30
0.0
 11
2.411414911416121
 21
10.89616397807352
 31
0.0
  0
LINE
  5
1D59
330
1CFC
100
AcDbEntity
  8
0
100
AcDbLine
 10
-2.449999999999997
 20
11.14621605598264
 30
0.0
 11
-2.449999999999997
 21
11.25354954772058
 31
0.0
  0
LINE
  5
1D5A
330
1CFC
100
AcDbEntity
  8
0
100
AcDbLine
 10
2.450000000000004
 20
11.14621605598264
 30
0.0
 11
2.450000000000004
 21
11.25354954772058
 31
0.0
  0
LINE
  5
1D5B
330
1CFC
100
AcDbEntity
  8
0
100
AcDbLine
 10
-4.149999999999996
 20
13.18745750830196
 30
0.0
 11
-4.149999999999996
 21
14.45303859001418
 31
0.0
  0
LINE
  5
1D5C
330
1CFC
100
AcDbEntity
  8
0
100
AcDbLine
 10
4.150000000000003
 20
13.18745750830196
 30
0.0
 11
4.150000000000003
 21
14.45303859001418
 31
0.0
  0
SPLINE
  5
1D5D
330
1CFC
100
AcDbEntity
  8
0
100
AcDbSpline
210
0.0
220
0.0
230
1.0
 70
     8
 71
     3
 72
    16
 73
    12
 74
     0
 42
0.000000001
 43
0.0000000001
 40
0.1121674122752678
 40
0.1121674122752678
 40
0.1121674122752678
 40
0.1121674122752678
 40
0.131186910520046
 40
0.131186910520046
 40
0.1967803657800691
 40
0.1967803657800691
 40
0.2623738210400922
 40
0.2623738210400922
 40
0.3279672763001153
 40
0.3279672763001153
 40
0.3337808308736103
 40
0.3337808308736103
 40
0.3337808308736103
 40
0.3337808308736103
 10
-1.574999544239004
 20
-8.842226970214177
 30
0.0
 10
-1.574999809400562
 20
-8.864718127170633
 30
0.0
 10
-1.571438349981366
 20
-8.887236144432346
 30
0.0
 10
-1.539631932129473
 20
-8.986635764834911
 30
0.0
 10
-1.472801936962217
 20
-9.060027876238688
 30
0.0
 10
-1.262809300560124
 20
-9.183633584859375
 30
0.0
 10
-1.121787792290164
 20
-9.232572310850946
 30
0.0
 10
-0.7846042136169034
 20
-9.291803643273418
 30
0.0
 10
-0.5918801441258358
 20
-9.301477754346883
 30
0.0
 10
-0.3683826135860471
 20
-9.285831662692007
 30
0.0
 10
-0.3501137902602558
 20
-9.284370708901867
 30
0.0
 10
-0.3317809481675582
 20
-9.282721297469148
 30
0.0
  0
SPLINE
  5
1D5E
330
1CFC
100
AcDbEntity
  8
0
100
AcDbSpline
210
0.0
220
0.0
230
1.0
 70
     8
 71
     3
 72
    12
 73
     8
 74
     0
 42
0.000000001
 43
0.0000000001
 40
0.7749662241938049
 40
0.7749662241938049
 40
0.7749662241938049
 40
0.7749662241938049
 40
0.796441493948133
 40
0.796441493948133
 40
0.8528136193769372
 40
0.8528136193769372
 40
0.864413252945329
 40
0.864413252945329
 40
0.864413252945329
 40
0.864413252945329
 10
0.9382746339729822
 20
-10.60642590922971
 30
0.0
 10
0.9899472667971904
 20
-10.56384691652222
 30
0.0
 10
1.038083158602689
 20
-10.51894370803055
 30
0.0
 10
1.198031402346209
 20
-10.34847160749359
 30
0.0
 10
1.283769352154623
 20
-10.21299162769835
 30
0.0
 10
1.345257547243425
 20
-10.04113083859534
 30
0.0
 10
1.35423579258791
 20
-10.01162824921867
 30
0.0
 10
1.361696623805369
 20
-9.981998573226267
 30
0.0
  0
SPLINE
  5
1D5F
330
1CFC
100
AcDbEntity
  8
0
100
AcDbSpline
210
0.0
220
0.0
230
1.0
 70
     8
 71
     3
 72
    11
 73
     7
 74
     0
 42
0.000000001
 43
0.0000000001
 40
0.6870712081770103
 40
0.6870712081770103
 40
0.6870712081770103
 40
0.6870712081770103
 40
1.774932457014266
 40
1.774932457014266
 40
1.774932457014266
 40
2.539200060937395
 40
2.539200060937395
 40
2.539200060937395
 40
2.539200060937395
 10
-1.068955923526315
 20
-9.920729468577725
 30
0.0
 10
-1.811730490681205
 20
-9.785738764825309
 30
0.0
 10
-2.267414090015
 20
-9.410894731125992
 30
0.0
 10
-2.23855060107913
 20
-9.050366435624095
 30
0.0
 10
-2.218272804114253
 20
-8.797080369184801
 30
0.0
 10
-1.961792777485083
 20
-8.561670498021474
 30
0.0
 10
-1.570180489477531
 20
-8.414770315658053
 30
0.0
  0
SPLINE
  5
1D60
330
1CFC
100
AcDbEntity
  8
0
100
AcDbSpline
210
0.0
220
0.0
230
1.0
 70
     8
 71
     3
 72
    11
 73
     7
 74
     0
 42
0.000000001
 43
0.0000000001
 40
4.445552794959462
 40
4.445552794959462
 40
4.445552794959462
 40
4.445552794959462
 40
5.162894332407325
 40
5.162894332407325
 40
5.162894332407325
 40
5.713252112001697
 40
5.713252112001697
 40
5.713252112001697
 40
5.713252112001697
 10
1.727440547641377
 20
-9.31019097265095
 30
0.0
 10
1.918948696389121
 20
-9.627994390272647
 30
0.0
 10
1.960569940889879
 20
-9.980611066048098
 30
0.0
 10
1.831301608780426
 20
-10.30151935582158
 30
0.0
 10
1.732124538281009
 20
-10.54772616888516
 30
0.0
 10
1.541084312659242
 20
-10.77432829674782
 30
0.0
 10
1.290688114420595
 20
-10.9580030753618
 30
0.0
  0
SPLINE
  5
1D61
330
1CFC
100
AcDbEntity
  8
0
100
AcDbSpline
210
0.0
220
0.0
230
1.0
 70
     8
 71
     3
 72
    11
 73
     7
 74
     0
 42
0.000000001
 43
0.0000000001
 40
7.130199699693288
 40
7.130199699693288
 40
7.130199699693288
 40
7.130199699693288
 40
8.358862074187019
 40
8.358862074187019
 40
8.358862074187019
 40
8.711822650893108
 40
8.711822650893108
 40
8.711822650893108
 40
8.711822650893108
 10
-0.9898454450125729
 20
-11.41759102438243
 30
0.0
 10
-1.518669428533035
 20
-11.28591277656636
 30
0.0
 10
-1.7053396854338
 20
-10.96978278719636
 30
0.0
 10
-1.483248388880837
 20
-10.74855193695963
 30
0.0
 10
-1.419447727494882
 20
-10.68499845790326
 30
0.0
 10
-1.324140475899638
 20
-10.63111109270931
 30
0.0
 10
-1.206883542284126
 20
-10.58965451793596
 30
0.0
  0
SPLINE
  5
1D62
330
1CFC
100
AcDbEntity
  8
0
100
AcDbSpline
210
0.0
220
0.0
230
1.0
 70
     8
 71
     3
 72
    11
 73
     7
 74
     0
 42
0.000000001
 43
0.0000000001
 40
10.56795977050533
 40
10.56795977050533
 40
10.56795977050533
 40
10.56795977050533
 40
10.86513526938964
 40
10.86513526938964
 40
10.86513526938964
 40
11.99643741918128
 40
11.99643741918128
 40
11.99643741918128
 40
11.99643741918128
 10
1.048958446538509
 20
-11.20991756847226
 30
0.0
 10
1.120589957514937
 20
-11.30253494483518
 30
0.0
 10
1.175096954402301
 20
-11.40043477792287
 30
0.0
 10
1.208457122349706
 20
-11.50119050727669
 30
0.0
 10
1.335454233006535
 20
-11.8847523205814
 30
0.0
 10
1.163189568125584
 20
-12.29067487146694
 30
0.0
 10
0.8243410189093825
 20
-12.56669959036637
 30
0.0
  0
SPLINE
  5
1D63
330
1CFC
100
AcDbEntity
  8
0
100
AcDbSpline
210
0.0
220
0.0
230
1.0
 70
     8
 71
     3
 72
    10
 73
     6
 74
     0
 42
0.000000001
 43
0.0000000001
 40
0.0519801063153458
 40
0.0519801063153458
 40
0.0519801063153458
 40
0.0519801063153458
 40
0.0782245871373894
 40
0.0782245871373894
 40
0.1131307393577912
 40
0.1131307393577912
 40
0.1131307393577912
 40
0.1131307393577912
 10
0.5980513417400105
 20
-12.34094692243967
 30
0.0
 10
0.6592105454263557
 20
-12.28268128286284
 30
0.0
 10
0.7131322483895297
 20
-12.21977178788851
 30
0.0
 10
0.8181082902879222
 20
-12.06402681184044
 30
0.0
 10
0.8611326338860918
 20
-11.96996190115443
 30
0.0
 10
0.8855521987071837
 20
-11.87298449469288
 30
0.0
  0
SPLINE
  5
1D64
330
1CFC
100
AcDbEntity
  8
0
100
AcDbSpline
210
0.0
220
0.0
230
1.0
 70
     8
 71
     3
 72
    12
 73
     8
 74
     0
 42
0.000000001
 43
0.0000000001
 40
0.4887135532398313
 40
0.4887135532398313
 40
0.4887135532398313
 40
0.4887135532398313
 40
0.5306746697017774
 40
0.5306746697017774
 40
0.581690641651572
 40
0.581690641651572
 40
0.597585139173328
 40
0.597585139173328
 40
0.597585139173328
 40
0.597585139173328
 10
-1.145504771642547
 20
-10.84059562977638
 30
0.0
 10
-1.13505810197779
 20
-10.88208778474696
 30
0.0
 10
-1.10156074067261
 20
-10.92273446772221
 30
0.0
 10
-0.9798210320341549
 20
-11.00241428301923
 30
0.0
 10
-0.8827949510064176
 20
-11.03824910312447
 30
0.0
 10
-0.7243293059078244
 20
-11.0677203322824
 30
0.0
 10
-0.6846240274718763
 20
-11.0733794267818
 30
0.0
 10
-0.6431210486120126
 20
-11.07758926610791
 30
0.0
  0
ELLIPSE
  5
1D65
330
1CFC
100
AcDbEntity
  8
0
100
AcDbEllipse
 10
1.638473126923725
 20
15.64089726612006
 30
0.0
 11
0.220760846782645
 21
0.0
 31
0.0
210
0.0
220
0.0
230
1.0
 40
0.5773502691896261
 41
5.331610918594937
 42
6.540468242240797
  0
LINE
  5
1D66
330
1CFC
100
AcDbEntity
  8
0
100
AcDbLine
 10
1.85196761159751
 20
15.60846550963527
 30
0.0
 11
1.85196761159751
 21
15.67332902260484
 31
0.0
  0
ELLIPSE
  5
1D67
330
1CFC
100
AcDbEntity
  8
0
100
AcDbEllipse
 10
1.20340650361253
 20
14.70345897864058
 30
0.0
 11
0.2207608467826455
 21
0.0
 31
0.0
210
0.0
220
0.0
230
1.0
 40
0.5773502691896258
 41
5.502303596520066
 42
6.711160920165934
  0
LINE
  5
1D68
330
1CFC
100
AcDbEntity
  8
0
100
AcDbLine
 10
1.404256442714212
 20
14.65056079519653
 30
0.0
 11
1.404256442714212
 21
14.75635716208463
 31
0.0
  0
ELLIPSE
  5
1D69
330
1CFC
100
AcDbEntity
  8
0
100
AcDbEllipse
 10
2.40504501655664
 20
15.01993651791917
 30
0.0
 11
-1.099999999999999
 21
0.0
 31
0.0
210
0.0
220
0.0
230
1.0
 40
0.5773502691896258
 41
5.331610918594936
 42
6.711160920165936
  0
ELLIPSE
  5
1D6A
330
1CFC
100
AcDbEntity
  8
0
100
AcDbEllipse
 10
1.192585047431729
 20
14.69721120800157
 30
0.0
 11
0.2207608467826451
 21
0.0000000000000132
 31
0.0
210
0.0
220
0.0
230
1.0
 40
0.5773502691896259
 41
4.284413367398268
 42
5.493270691044058
  0
ELLIPSE
  5
1D6B
330
1CFC
100
AcDbEntity
  8
0
100
AcDbEllipse
 10
-0.4311056954430771
 20
14.44602537591743
 30
0.0
 11
0.2207608467826448
 21
0.0
 31
0.0
210
0.0
220
0.0
230
1.0
 40
0.5773502691896261
 41
4.455106045323464
 42
5.663963368969338
  0
ELLIPSE
  5
1D6C
330
1CFC
100
AcDbEntity
  8
0
100
AcDbEllipse
 10
0.6444298699468504
 20
14.00344488908467
 30
0.0
 11
1.1
 21
-0.0000000000000656
 31
0.0
210
0.0
220
0.0
230
1.0
 40
0.5773502691896259
 41
1.142820713808742
 42
2.522370715379874
  0
ELLIPSE
  5
1D6D
330
1CFC
100
AcDbEntity
  8
0
100
AcDbEllipse
 10
-0.445888079491992
 20
14.44831221868833
 30
0.0
 11
-0.2207608467826455
 21
0.0
 31
0.0
210
0.0
220
0.0
230
1.0
 40
0.5773502691896257
 41
0.0956231626119586
 42
1.304480486257826
  0
ELLIPSE
  5
1D6E
330
1CFC
100
AcDbEntity
  8
0
100
AcDbEllipse
 10
-1.634512199055604
 20
15.13456467408366
 30
0.0
 11
-0.2207608467826455
 21
0.0
 31
0.0
210
0.0
220
0.0
230
1.0
 40
0.577350269189626
 41
0.2663158405370884
 42
1.475173164182955
  0
ELLIPSE
  5
1D6F
330
1CFC
100
AcDbEntity
  8
0
100
AcDbEllipse
 10
-1.760615146609787
 20
14.37550664797232
 30
0.0
 11
1.1
 21
0.0000000000000001
 31
0.0
210
0.0
220
0.0
230
1.0
 40
0.5773502691896259
 41
0.0956231626119495
 42
1.475173164182947
  0
ELLIPSE
  5
1D70
330
1CFC
100
AcDbEntity
  8
0
100
AcDbEllipse
 10
-1.638473126923717
 20
15.14309928749357
 30
0.0
 11
-0.2207608467826457
 21
0.0
 31
0.0
210
0.0
220
0.0
230
1.0
 40
0.5773502691896258
 41
5.331610918594941
 42
6.540468242240814
  0
LINE
  5
1D71
330
1CFC
100
AcDbEntity
  8
0
100
AcDbLine
 10
-1.766603105857734
 20
15.03244163748503
 30
0.0
 11
-1.766603105857734
 21
15.24689084137371
 31
0.0
  0
ELLIPSE
  5
1D72
330
1CFC
100
AcDbEntity
  8
0
100
AcDbEllipse
 10
-1.203406503612523
 20
16.08053757497305
 30
0.0
 11
-0.2207608467826452
 21
0.0
 31
0.0
210
0.0
220
0.0
230
1.0
 40
0.5773502691896258
 41
5.502303596520064
 42
6.711160920165934
  0
LINE
  5
1D73
330
1CFC
100
AcDbEntity
  8
0
100
AcDbLine
 10
-1.360211425902713
 20
15.96265742392942
 30
0.0
 11
-1.360211425902713
 21
16.17025484907667
 31
0.0
  0
ELLIPSE
  5
1D74
330
1CFC
100
AcDbEntity
  8
0
100
AcDbEllipse
 10
-2.405045016556633
 20
15.76406003569446
 30
0.0
 11
1.099999999999999
 21
0.0
 31
0.0
210
0.0
220
0.0
230
1.0
 40
0.5773502691896258
 41
5.331610918594936
 42
6.711160920165935
  0
ELLIPSE
  5
1D75
330
1CFC
100
AcDbEntity
  8
0
100
AcDbEllipse
 10
-1.192585047431722
 20
16.08678534561206
 30
0.0
 11
-0.2207608467826451
 21
-0.0000000000000132
 31
0.0
210
0.0
220
0.0
230
1.0
 40
0.5773502691896259
 41
4.284413367398268
 42
5.493270691044058
  0
LINE
  5
1D76
330
1CFC
100
AcDbEntity
  8
0
100
AcDbLine
 10
-1.347979924495794
 20
15.93976185805876
 30
0.0
 11
-1.347979924495794
 21
16.17731670970655
 31
0.0
  0
LINE
  5
1D77
330
1CFC
100
AcDbEntity
  8
0
100
AcDbLine
 10
-1.100962706078528
 20
14.88372532062585
 30
0.0
 11
-1.100962706078528
 21
16.20274611201913
 31
0.0
  0
ELLIPSE
  5
1D78
330
1CFC
100
AcDbEntity
  8
0
100
AcDbEllipse
 10
0.4311056954430839
 20
16.3379711776962
 30
0.0
 11
-0.2207608467826452
 21
0.0
 31
0.0
210
0.0
220
0.0
230
1.0
 40
0.577350269189626
 41
4.455106045323464
 42
5.663963368969339
  0
LINE
  5
1D79
330
1CFC
100
AcDbEntity
  8
0
100
AcDbLine
 10
0.2513334507261673
 20
14.59659332615471
 30
0.0
 11
0.2513334507261674
 21
16.41194705552501
 31
0.0
  0
LINE
  5
1D7A
330
1CFC
100
AcDbEntity
  8
0
100
AcDbLine
 10
0.4872791454534357
 20
14.6320156620268
 30
0.0
 11
0.4872791454534357
 21
16.4612322758931
 31
0.0
  0
ELLIPSE
  5
1D7B
330
1CFC
100
AcDbEntity
  8
0
100
AcDbEllipse
 10
-0.6444298699468437
 20
16.78055166452896
 30
0.0
 11
-1.099999999999999
 21
0.0000000000000657
 31
0.0
210
0.0
220
0.0
230
1.0
 40
0.577350269189626
 41
1.142820713808742
 42
2.522370715379878
  0
LINE
  5
1D7C
330
1CFC
100
AcDbEntity
  8
0
100
AcDbLine
 10
1.30504501655664
 20
14.58753272816678
 30
0.0
 11
1.30504501655664
 21
15.01993651791917
 31
0.0
  0
LINE
  5
1D7D
330
1CFC
100
AcDbEntity
  8
0
100
AcDbLine
 10
-1.305045016556634
 20
14.95356542716447
 30
0.0
 11
-1.305045016556634
 21
15.76406003569446
 31
0.0
  0
LINE
  5
1D7E
330
1CFC
100
AcDbEntity
  8
0
100
AcDbLine
 10
0.5039876871017122
 20
14.63333270800634
 30
0.0
 11
0.5039876871017122
 21
16.45864745550458
 31
0.0
  0
LINE
  5
1D7F
330
1CFC
100
AcDbEntity
  8
0
100
AcDbLine
 10
1.847490571356152
 20
15.59988076783328
 30
0.0
 11
1.847490571356152
 21
15.68297570362324
 31
0.0
  0
ELLIPSE
  5
1D80
330
1CFC
100
AcDbEntity
  8
0
100
AcDbEllipse
 10
0.4458880794919988
 20
16.3356843349253
 30
0.0
 11
0.2207608467826458
 21
0.0
 31
0.0
210
0.0
220
0.0
230
1.0
 40
0.5773502691896258
 41
0.0956231626119586
 42
1.304480486257825
  0
LINE
  5
1D81
330
1CFC
100
AcDbEntity
  8
0
100
AcDbLine
 10
0.6656403997792104
 20
14.6384121096098
 30
0.0
 11
0.6656403997792105
 21
16.34785354745224
 31
0.0
  0
ELLIPSE
  5
1D82
330
1CFC
100
AcDbEntity
  8
0
100
AcDbEllipse
 10
1.634512199055611
 20
15.64943187952996
 30
0.0
 11
0.2207608467826453
 21
0.0
 31
0.0
210
0.0
220
0.0
230
1.0
 40
0.5773502691896259
 41
0.2663158405370698
 42
1.475173164182939
  0
LINE
  5
1D83
330
1CFC
100
AcDbEntity
  8
0
100
AcDbLine
 10
1.655589893440376
 20
15.48480819140723
 30
0.0
 11
1.655589893440376
 21
15.77630594080283
 31
0.0
  0
ELLIPSE
  5
1D84
330
1CFC
100
AcDbEntity
  8
0
100
AcDbEllipse
 10
1.760615146609793
 20
16.40848990564131
 30
0.0
 11
-1.099999999999999
 21
-0.0000000000000001
 31
0.0
210
0.0
220
0.0
230
1.0
 40
0.5773502691896259
 41
0.0956231626119468
 42
1.475173164182947
  0
ELLIPSE
  5
1D85
330
1CFC
100
AcDbEntity
  8
0
100
AcDbEllipse
 10
0.0000000000000109
 20
15.39199827680687
 30
0.0
 11
1.914999999999912
 21
0.0000000000000001
 31
0.0
210
0.0
220
0.0
230
1.0
 40
0.577350269189626
 41
1.304480486257804
 42
1.313513391733668
  0
ELLIPSE
  5
1D86
330
1CFC
100
AcDbEntity
  8
0
100
AcDbEllipse
 10
-0.0000000000053328
 20
15.3919982768099
 30
0.0
 11
1.914999999992453
 21
-0.0000000000001144
 31
0.0
210
0.0
220
0.0
230
1.0
 40
0.5773502691896259
 41
2.351678037454657
 42
2.360710942930534
  0
ELLIPSE
  5
1D87
330
1CFC
100
AcDbEntity
  8
0
100
AcDbEllipse
 10
0.0000000000064039
 20
15.3919982768078
 30
0.0
 11
-1.915000000006623
 21
-0.0000000000000004
 31
0.0
210
0.0
220
0.0
230
1.0
 40
0.5773502691896257
 41
0.2572829350612267
 42
0.2663158405370556
  0
ELLIPSE
  5
1D88
330
1CFC
100
AcDbEntity
  8
0
100
AcDbEllipse
 10
-0.0000000000034736
 20
15.3919982767993
 30
0.0
 11
-1.914999999986536
 21
-0.0000000000000004
 31
0.0
210
0.0
220
0.0
230
1.0
 40
0.577350269189626
 41
1.304480486257791
 42
1.313513391733703
  0
ELLIPSE
  5
1D89
330
1CFC
100
AcDbEntity
  8
0
100
AcDbEllipse
 10
0.0000000000125988
 20
15.39199827680877
 30
0.0
 11
1.91499999998696
 21
0.0000000000000005
 31
0.0
210
0.0
220
0.0
230
1.0
 40
0.5773502691896257
 41
0.2572829350611947
 42
0.2663158405371071
  0
ELLIPSE
  5
1D8A
330
1CFC
100
AcDbEntity
  8
0
100
AcDbEllipse
 10
0.000000000005488
 20
15.39199827680365
 30
0.0
 11
-1.914999999992243
 21
0.000000000000114
 31
0.0
210
0.0
220
0.0
230
1.0
 40
0.5773502691896259
 41
2.351678037454657
 42
2.360710942930536
  0
ENDBLK
  5
1CFE
330
1CFC
100
AcDbEntity
  8
0
100
AcDbBlockEnd
  0
ENDSEC
  0
SECTION
  2
ENTITIES
  0
INSERT
  5
1D8B
330
1F
100
AcDbEntity
  8
0
100
AcDbBlockReference
  2
CSA50x35-Front
 10
0.0
 20
0.0
 30
0.0
  0
INSERT
  5
1D8C
330
1F
100
AcDbEntity
  8
0
100
AcDbBlockReference
  2
CSA50x35-Top
 10
0.0
 20
-50.46
 30
0.0
  0
INSERT
  5
1D8D
330
1F
100
AcDbEntity
  8
0
100
AcDbBlockReference
  2
CSA50x35-ISO
 10
19.61
 20
-63.33221704400387
 30
0.0
  0
MTEXT
  5
1D8E
330
1F
100
AcDbEntity
  8
0
100
AcDbMText
 10
0.0
 20
-65.92
 30
0.0
 40
2.378461538461539
 41
0.0
 71
     5
 72
     5
  1
CSA5.0x35
 73
     1
 44
1.0
1001
ACAD
1000
MTEXTBEGIN
1070
    73
1070
     1
1070
    44
1040
1.0
1070
    74
1070
     0
1000
MTEXTEND
  0
ENDSEC
  0
SECTION
  2
OBJECTS
  0
DICTIONARY
  5
C
330
0
100
AcDbDictionary
281
     1
  3
ACAD_CIP_PREVIOUS_PRODUCT_INFO
350
216
  3
ACAD_COLOR
350
6B
  3
ACAD_DETAILVIEWSTYLE
350
21B
  3
ACAD_GROUP
350
D
  3
ACAD_LAYOUT
350
1A
  3
ACAD_MATERIAL
350
6A
  3
ACAD_MLEADERSTYLE
350
12D
  3
ACAD_MLINESTYLE
350
17
  3
ACAD_PLOTSETTINGS
350
19
  3
ACAD_PLOTSTYLENAME
350
E
  3
ACAD_SCALELIST
350
10C
  3
ACAD_SECTIONVIEWSTYLE
350
219
  3
ACAD_TABLESTYLE
350
7E
  3
ACAD_VISUALSTYLE
350
EF
  3
ACDB_RECOMPOSE_DATA
350
1E91
  3
AcDbVariableDictionary
350
5E
  3
DWGPROPS
350
1E92
  0
DICTIONARY
  5
1DE1
330
8
100
AcDbDictionary
280
     1
281
     1
  0
DICTIONARY
  5
1FF
330
2
100
AcDbDictionary
280
     1
281
     1
  3
ACAD_LAYERSTATES
360
200
  0
DICTIONARY
  5
13C
330
10
100
AcDbDictionary
280
     1
281
     1
  0
DICTIONARY
  5
1CE
330
1F
100
AcDbDictionary
280
     1
281
     1
  3
ACAD_LAYOUTSELFREF
360
1DE9
  0
DICTIONARY
  5
1D92
330
D2
100
AcDbDictionary
280
     1
281
     1
  3
ACAD_LAYOUTSELFREF
360
1DF2
  0
DICTIONARY
  5
1D94
330
D6
100
AcDbDictionary
280
     1
281
     1
  3
ACAD_LAYOUTSELFREF
360
1DF5
  0
XRECORD
  5
216
102
{ACAD_REACTORS
330
C
102
}
330
C
100
AcDbXrecord
280
     1
300
ACD
300
2021
300

  0
DICTIONARY
  5
6B
102
{ACAD_REACTORS
330
C
102
}
330
C
100
AcDbDictionary
281
     1
  0
DICTIONARY
  5
21B
102
{ACAD_REACTORS
330
C
102
}
330
C
100
AcDbDictionary
281
     1
  3
Metric50
350
21C
  0
DICTIONARY
  5
D
102
{ACAD_REACTORS
330
C
102
}
330
C
100
AcDbDictionary
281
     1
  0
DICTIONARY
  5
1A
102
{ACAD_REACTORS
330
C
102
}
330
C
100
AcDbDictionary
281
     1
  3
Layout1
350
D3
  3
Layout2
350
D7
  3
Model
350
22
  0
DICTIONARY
  5
6A
102
{ACAD_REACTORS
330
C
102
}
330
C
100
AcDbDictionary
281
     1
  3
ByBlock
350
ED
  3
ByLayer
350
EC
  3
Global
350
EE
  0
DICTIONARY
  5
12D
102
{ACAD_REACTORS
330
C
102
}
330
C
100
AcDbDictionary
281
     1
  3
Standard
350
12E
  0
DICTIONARY
  5
17
102
{ACAD_REACTORS
330
C
102
}
330
C
100
AcDbDictionary
281
     1
  3
Standard
350
18
  0
DICTIONARY
  5
19
102
{ACAD_REACTORS
330
C
102
}
330
C
100
AcDbDictionary
281
     1
  0
ACDBDICTIONARYWDFLT
  5
E
102
{ACAD_REACTORS
330
C
102
}
330
C
100
AcDbDictionary
281
     1
  3
Normal
350
F
100
AcDbDictionaryWithDefault
340
F
  0
DICTIONARY
  5
10C
102
{ACAD_REACTORS
330
C
102
}
330
C
100
AcDbDictionary
281
     1
  3
A0
350
10D
  3
A1
350
1BE
  3
A2
350
1BF
  3
A3
350
1C0
  3
A4
350
1C1
  3
A5
350
1C2
  3
A6
350
1C3
  3
A7
350
1C4
  3
A8
350
1C5
  3
A9
350
1C6
  3
B0
350
1C7
  3
B1
350
1C8
  3
B2
350
1C9
  3
B3
350
1CA
  3
B4
350
1CB
  3
B5
350
1CC
  3
B6
350
1CD
  0
DICTIONARY
  5
219
102
{ACAD_REACTORS
330
C
102
}
330
C
100
AcDbDictionary
281
     1
  3
Metric50
350
21A
  0
DICTIONARY
  5
7E
102
{ACAD_REACTORS
330
C
102
}
330
C
100
AcDbDictionary
281
     1
  3
Standard
350
7F
  0
DICTIONARY
  5
EF
102
{ACAD_REACTORS
330
C
102
}
330
C
100
AcDbDictionary
281
     1
  3
2dWireframe
350
F5
  3
Basic
350
F4
  3
Brighten
350
FB
  3
ColorChange
350
FF
  3
Conceptual
350
F8
  3
Dim
350
FA
  3
EdgeColorOff
350
1E6
  3
Facepattern
350
FE
  3
Flat
350
F0
  3
FlatWithEdges
350
F1
  3
Gouraud
350
F2
  3
GouraudWithEdges
350
F3
  3
Hidden
350
F7
  3
JitterOff
350
1E4
  3
Linepattern
350
FD
  3
OverhangOff
350
1E5
  3
Realistic
350
F9
  3
Shaded
350
1F3
  3
Shaded with edges
350
1F2
  3
Shades of Gray
350
1EF
  3
Sketchy
350
1F0
  3
Thicken
350
FC
  3
Wireframe
350
F6
  3
X-Ray
350
1F1
  0
XRECORD
  5
1E91
102
{ACAD_REACTORS
330
C
102
}
330
C
100
AcDbXrecord
280
     1
 90
        1
330
7F
  0
DICTIONARY
  5
5E
102
{ACAD_REACTORS
330
C
102
}
330
C
100
AcDbDictionary
281
     1
  3
CANNOSCALE
350
146
  3
CENTEREXE
350
259
  3
CENTERLTYPEFILE
350
25A
  3
CMLEADERSTYLE
350
145
  3
CTABLESTYLE
350
84
  3
CVIEWDETAILSTYLE
350
227
  3
CVIEWSECTIONSTYLE
350
228
  3
DIMASSOC
350
5F
  3
HIDETEXT
350
63
  3
INDEXCTL
350
1E3E
  3
LAYEREVAL
350
1AE
  3
LAYERNOTIFY
350
1AF
  3
LIGHTINGUNITS
350
1E3C
  3
MSLTSCALE
350
1E3B
  3
PSOLHEIGHT
350
1E8E
  3
PSOLWIDTH
350
1E8D
  3
SORTENTS
350
1E3D
  3
XCLIPFRAME
350
1E8F
  0
XRECORD
  5
1E92
102
{ACAD_REACTORS
330
C
102
}
330
C
100
AcDbXrecord
280
     1
  1
DWGPROPS COOKIE
  2

  3

  4

  6

  7

  8
tronnguyen
  9

300
=
301
=
302
=
303
=
304
=
305
=
306
=
307
=
308
=
309
=
 40
0.0011458333333333
 41
2460131.529421297
 42
2460131.555868056
  1

 90
        0
  0
DICTIONARY
  5
200
102
{ACAD_REACTORS
330
1FF
102
}
330
1FF
100
AcDbDictionary
281
     1
  0
XRECORD
  5
1DE9
102
{ACAD_REACTORS
330
1CE
102
}
330
1CE
100
AcDbXrecord
280
     1
340
1F
  0
XRECORD
  5
1DF2
102
{ACAD_REACTORS
330
1D92
102
}
330
1D92
100
AcDbXrecord
280
     1
340
D2
  0
XRECORD
  5
1DF5
102
{ACAD_REACTORS
330
1D94
102
}
330
1D94
100
AcDbXrecord
280
     1
340
D6
  0
ACDBDETAILVIEWSTYLE
  5
21C
102
{ACAD_XDICTIONARY
360
1ED1
102
}
102
{ACAD_REACTORS
330
21B
102
}
330
21B
100
AcDbModelDocViewStyle
 70
     0
  3
Metric50
290
     0
100
AcDbDetailViewStyle
 70
     0
 71
     0
 90
        3
 71
     1
340
11
 40
5.0
340
0
 40
5.0
300

 40
0.0
280
     1
 71
     2
340
16
 90
       25
 71
     3
340
11
 40
5.0
 90
        0
 40
15.0
 90
        1
300
%<\AcVar ViewDetailId>% (%<\AcVar ViewScale \f "%sn">%)
 71
     4
340
16
 90
       25
340
16
 90
       25
280
     0
  0
LAYOUT
  5
D3
102
{ACAD_XDICTIONARY
360
1E96
102
}
102
{ACAD_REACTORS
330
1A
102
}
330
1A
100
AcDbPlotSettings
  1

  2
C:\Documents and Settings\basas\Application Data\Autodesk\AutoCAD 2005\R16.1\enu\plotters\Default Windows System Printer.pc3
  4

  6

 40
0.0
 41
0.0
 42
0.0
 43
0.0
 44
0.0
 45
0.0
 46
0.0
 47
0.0
 48
0.0
 49
0.0
140
0.0
141
0.0
142
1.0
143
1.0
 70
   688
 72
     0
 73
     0
 74
     5
  7

 75
    16
147
1.0
148
0.0
149
0.0
100
AcDbLayout
  1
Layout1
 70
     1
 71
     1
 10
0.0
 20
0.0
 11
12.0
 21
9.0
 12
0.0
 22
0.0
 32
0.0
 14
0.0
 24
0.0
 34
0.0
 15
0.0
 25
0.0
 35
0.0
146
0.0
 13
0.0
 23
0.0
 33
0.0
 16
1.0
 26
0.0
 36
0.0
 17
0.0
 27
1.0
 37
0.0
 76
     0
330
D2
  0
LAYOUT
  5
D7
102
{ACAD_XDICTIONARY
360
1E98
102
}
102
{ACAD_REACTORS
330
1A
102
}
330
1A
100
AcDbPlotSettings
  1

  2
C:\Documents and Settings\basas\Application Data\Autodesk\AutoCAD 2005\R16.1\enu\plotters\Default Windows System Printer.pc3
  4

  6

 40
0.0
 41
0.0
 42
0.0
 43
0.0
 44
0.0
 45
0.0
 46
0.0
 47
0.0
 48
0.0
 49
0.0
140
0.0
141
0.0
142
1.0
143
1.0
 70
   688
 72
     0
 73
     0
 74
     5
  7

 75
    16
147
1.0
148
0.0
149
0.0
100
AcDbLayout
  1
Layout2
 70
     1
 71
     2
 10
0.0
 20
0.0
 11
12.0
 21
9.0
 12
0.0
 22
0.0
 32
0.0
 14
0.0
 24
0.0
 34
0.0
 15
0.0
 25
0.0
 35
0.0
146
0.0
 13
0.0
 23
0.0
 33
0.0
 16
1.0
 26
0.0
 36
0.0
 17
0.0
 27
1.0
 37
0.0
 76
     0
330
D6
  0
LAYOUT
  5
22
102
{ACAD_XDICTIONARY
360
1E93
102
}
102
{ACAD_REACTORS
330
1A
102
}
330
1A
100
AcDbPlotSettings
  1

  2
none_device
  4
ISO_A4_(210.00_x_297.00_MM)
  6

 40
7.5
 41
20.0
 42
7.5
 43
20.0
 44
210.0
 45
297.0
 46
11.54999923706054
 47
-13.65000009536743
 48
0.0
 49
0.0
140
0.0
141
0.0
142
1.0
143
8.704084754739808
 70
 11952
 72
     1
 73
     0
 74
     0
  7

 75
     0
147
0.1148885871608098
148
0.0
149
0.0
100
AcDbLayout
  1
Model
 70
     1
 71
     0
 10
0.0
 20
0.0
 11
12.0
 21
9.0
 12
0.0
 22
0.0
 32
0.0
 14
0.0
 24
0.0
 34
0.0
 15
0.0
 25
0.0
 35
0.0
146
0.0
 13
0.0
 23
0.0
 33
0.0
 16
1.0
 26
0.0
 36
0.0
 17
0.0
 27
1.0
 37
0.0
 76
     0
330
1F
331
EA
1001
ACAD_PSEXT
1000
None
1000
None
1000
Not applicable
1000
The layout will not be plotted unless a new plotter configuration name is selected.
1070
     0
  0
MATERIAL
  5
ED
102
{ACAD_XDICTIONARY
360
1F9
102
}
102
{ACAD_REACTORS
330
6A
102
}
330
6A
100
AcDbMaterial
  1
ByBlock
  0
MATERIAL
  5
EC
102
{ACAD_XDICTIONARY
360
1F7
102
}
102
{ACAD_REACTORS
330
6A
102
}
330
6A
100
AcDbMaterial
  1
ByLayer
  0
MATERIAL
  5
EE
102
{ACAD_XDICTIONARY
360
173
102
}
102
{ACAD_REACTORS
330
6A
102
}
330
6A
100
AcDbMaterial
  1
Global
 43
0.0007999999797903
 43
0.0
 43
0.0
 43
0.0
 43
0.0
 43
0.0007999999797903
 43
0.0
 43
0.0
 43
0.0
 43
0.0
 43
1.0
 43
0.0
 43
0.0
 43
0.0
 43
0.0
 43
1.0
 49
0.0007999999797903
 49
0.0
 49
0.0
 49
0.0
 49
0.0
 49
0.0007999999797903
 49
0.0
 49
0.0
 49
0.0
 49
0.0
 49
1.0
 49
0.0
 49
0.0
 49
0.0
 49
0.0
 49
1.0
142
0.0007999999797903
142
0.0
142
0.0
142
0.0
142
0.0
142
0.0007999999797903
142
0.0
142
0.0
142
0.0
142
0.0
142
1.0
142
0.0
142
0.0
142
0.0
142
0.0
142
1.0
144
0.0007999999797903
144
0.0
144
0.0
144
0.0
144
0.0
144
0.0007999999797903
144
0.0
144
0.0
144
0.0
144
0.0
144
1.0
144
0.0
144
0.0
144
0.0
144
0.0
144
1.0
1001
ACAD
1070
    -1
1070
     3
1070
     0
1000

1071
        0
1070
     0
  0
MLEADERSTYLE
  5
12E
102
{ACAD_XDICTIONARY
360
1EBD
102
}
102
{ACAD_REACTORS
330
12D
102
}
330
12D
100
AcDbMLeaderStyle
170
     2
171
     1
172
     0
 90
        2
 40
0.0
 41
0.0
173
     1
 91
-1056964608
340
14
 92
       -2
290
     1
 42
2.0
291
     1
 43
8.0
  3
Standard
 44
4.0
300

342
11
174
     1
178
     1
175
     1
176
     0
 93
-1056964608
 45
4.0
292
     0
297
     0
 46
4.0
 94
-1056964608
 47
1.0
 49
1.0
140
1.0
293
     1
141
0.0
294
     1
177
     0
142
1.0
295
     0
296
     0
143
3.75
1001
ACAD_MLEADERVER
1070
     2
  0
MLINESTYLE
  5
18
102
{ACAD_REACTORS
330
17
102
}
330
17
100
AcDbMlineStyle
  2
STANDARD
 70
     0
  3

 62
   256
 51
90.0
 52
90.0
 71
     2
 49
0.5
 62
   256
  6
BYLAYER
 49
-0.5
 62
   256
  6
BYLAYER
  0
ACDBPLACEHOLDER
  5
F
102
{ACAD_REACTORS
330
E
102
}
330
E
  0
SCALE
  5
10D
102
{ACAD_REACTORS
330
10C
102
}
330
10C
100
AcDbScale
 70
     0
300
1:1
140
1.0
141
1.0
290
     1
  0
SCALE
  5
1BE
102
{ACAD_REACTORS
330
10C
102
}
330
10C
100
AcDbScale
 70
     0
300
1:2
140
1.0
141
2.0
290
     0
  0
SCALE
  5
1BF
102
{ACAD_REACTORS
330
10C
102
}
330
10C
100
AcDbScale
 70
     0
300
1:4
140
1.0
141
4.0
290
     0
  0
SCALE
  5
1C0
102
{ACAD_REACTORS
330
10C
102
}
330
10C
100
AcDbScale
 70
     0
300
1:5
140
1.0
141
5.0
290
     0
  0
SCALE
  5
1C1
102
{ACAD_REACTORS
330
10C
102
}
330
10C
100
AcDbScale
 70
     0
300
1:8
140
1.0
141
8.0
290
     0
  0
SCALE
  5
1C2
102
{ACAD_REACTORS
330
10C
102
}
330
10C
100
AcDbScale
 70
     0
300
1:10
140
1.0
141
10.0
290
     0
  0
SCALE
  5
1C3
102
{ACAD_REACTORS
330
10C
102
}
330
10C
100
AcDbScale
 70
     0
300
1:16
140
1.0
141
16.0
290
     0
  0
SCALE
  5
1C4
102
{ACAD_REACTORS
330
10C
102
}
330
10C
100
AcDbScale
 70
     0
300
1:20
140
1.0
141
20.0
290
     0
  0
SCALE
  5
1C5
102
{ACAD_REACTORS
330
10C
102
}
330
10C
100
AcDbScale
 70
     0
300
1:30
140
1.0
141
30.0
290
     0
  0
SCALE
  5
1C6
102
{ACAD_REACTORS
330
10C
102
}
330
10C
100
AcDbScale
 70
     0
300
1:40
140
1.0
141
40.0
290
     0
  0
SCALE
  5
1C7
102
{ACAD_REACTORS
330
10C
102
}
330
10C
100
AcDbScale
 70
     0
300
1:50
140
1.0
141
50.0
290
     0
  0
SCALE
  5
1C8
102
{ACAD_REACTORS
330
10C
102
}
330
10C
100
AcDbScale
 70
     0
300
1:100
140
1.0
141
100.0
290
     0
  0
SCALE
  5
1C9
102
{ACAD_REACTORS
330
10C
102
}
330
10C
100
AcDbScale
 70
     0
300
2:1
140
2.0
141
1.0
290
     0
  0
SCALE
  5
1CA
102
{ACAD_REACTORS
330
10C
102
}
330
10C
100
AcDbScale
 70
     0
300
4:1
140
4.0
141
1.0
290
     0
  0
SCALE
  5
1CB
102
{ACAD_REACTORS
330
10C
102
}
330
10C
100
AcDbScale
 70
     0
300
8:1
140
8.0
141
1.0
290
     0
  0
SCALE
  5
1CC
102
{ACAD_REACTORS
330
10C
102
}
330
10C
100
AcDbScale
 70
     0
300
10:1
140
10.0
141
1.0
290
     0
  0
SCALE
  5
1CD
102
{ACAD_REACTORS
330
10C
102
}
330
10C
100
AcDbScale
 70
     0
300
100:1
140
100.0
141
1.0
290
     0
  0
ACDBSECTIONVIEWSTYLE
  5
21A
102
{ACAD_XDICTIONARY
360
1ECF
102
}
102
{ACAD_REACTORS
330
219
102
}
330
219
100
AcDbModelDocViewStyle
 70
     0
  3
Metric50
290
     0
100
AcDbSectionViewStyle
 70
     0
 71
     0
 90
      102
 71
     1
340
11
 40
5.0
340
0
340
0
 40
5.0
300
I, O, Q, S, X, Z
 40
10.0
 90
        0
 40
2.5
 90
        0
 71
     2
340
16
 90
       25
340
16
 90
       50
 40
5.0
 40
2.5
 40
5.0
 71
     3
340
11
 40
5.0
 90
        0
 40
15.0
 90
        1
300
%<\AcVar ViewSectionStartId>%-%<\AcVar ViewSectionEndId>% (%<\AcVar ViewScale \f "%sn">%)
 71
     4
300
ANSI31
 40
1.0
 90
        0
290
     0
290
     0
 90
        6
 40
0.0
 40
1.570796326794896
 40
0.2617993877991494
 40
1.308996938995747
 40
-0.2617993877991494
 40
1.832595714594046
  0
TABLESTYLE
  5
7F
102
{ACAD_XDICTIONARY
360
162
102
}
102
{ACAD_REACTORS
330
7E
102
}
330
7E
100
AcDbTableStyle
  3
Standard
 70
     0
 71
     0
 40
1.5
 41
1.5
280
     0
281
     0
  7
Standard
140
4.5
170
     2
 62
     0
 63
     7
283
     0
274
    -2
284
     1
 64
     0
275
    -2
285
     1
 65
     0
276
    -2
286
     1
 66
     0
277
    -2
287
     1
 67
     0
278
    -2
288
     1
 68
     0
279
    -2
289
     1
 69
     0
  7
Standard
140
6.0
170
     5
 62
     0
 63
     7
283
     0
274
    -2
284
     1
 64
     0
275
    -2
285
     1
 65
     0
276
    -2
286
     1
 66
     0
277
    -2
287
     1
 67
     0
278
    -2
288
     1
 68
     0
279
    -2
289
     1
 69
     0
  7
Standard
140
4.5
170
     5
 62
     0
 63
     7
283
     0
274
    -2
284
     1
 64
     0
275
    -2
285
     1
 65
     0
276
    -2
286
     1
 66
     0
277
    -2
287
     1
 67
     0
278
    -2
288
     1
 68
     0
279
    -2
289
     1
 69
     0
  0
VISUALSTYLE
  5
F5
102
{ACAD_XDICTIONARY
360
1EA7
102
}
102
{ACAD_REACTORS
330
EF
102
}
330
EF
100
AcDbVisualStyle
  2
2dWireframe
 70
     4
 71
     0
 72
     2
 73
     1
 90
        0
 40
-0.6
 41
-30.0
 62
     5
 63
     7
 74
     1
 91
        4
 64
     7
 65
   257
 75
     1
175
     1
 42
1.0
 92
        0
 66
   257
 43
1.0
 76
     1
 77
     6
 78
     2
 67
     7
 79
     5
170
     0
171
     0
290
     0
174
     0
 93
        1
 44
0.0
173
     0
291
     0
 45
0.0
1001
ACAD
1000
AcDbSavedByObjectVersion
1070
     0
  0
VISUALSTYLE
  5
F4
102
{ACAD_XDICTIONARY
360
1EA5
102
}
102
{ACAD_REACTORS
330
EF
102
}
330
EF
100
AcDbVisualStyle
  2
Basic
 70
     7
 71
     1
 72
     0
 73
     1
 90
        0
 40
-0.6
 41
-30.0
 62
     5
 63
     7
 74
     0
 91
        4
 64
     7
 65
   257
 75
     1
175
     1
 42
1.0
 92
        8
 66
     7
 43
1.0
 76
     1
 77
     6
 78
     2
 67
     7
 79
     5
170
     0
171
     0
290
     0
174
     0
 93
        1
 44
0.0
173
     0
291
     1
 45
0.0
1001
ACAD
1000
AcDbSavedByObjectVersion
1070
     0
  0
VISUALSTYLE
  5
FB
102
{ACAD_XDICTIONARY
360
1EB3
102
}
102
{ACAD_REACTORS
330
EF
102
}
330
EF
100
AcDbVisualStyle
  2
Brighten
 70
    12
 71
     2
 72
     2
 73
     1
 90
        0
 40
-0.6
 41
-30.0
 62
     5
 63
     7
 74
     1
 91
        4
 64
     7
 65
   257
 75
     1
175
     1
 42
1.0
 92
        8
 66
     7
 43
1.0
 76
     1
 77
     6
 78
     2
 67
     7
 79
     5
170
     0
171
     0
290
     0
174
     0
 93
        1
 44
50.0
173
     0
291
     1
 45
0.0
1001
ACAD
1000
AcDbSavedByObjectVersion
1070
     0
  0
VISUALSTYLE
  5
FF
102
{ACAD_XDICTIONARY
360
1EBB
102
}
102
{ACAD_REACTORS
330
EF
102
}
330
EF
100
AcDbVisualStyle
  2
ColorChange
 70
    16
 71
     2
 72
     2
 73
     3
 90
        0
 40
-0.6
 41
-30.0
 62
     5
 63
     8
 74
     1
 91
        4
 64
     7
 65
   257
 75
     1
175
     1
 42
1.0
 92
        8
 66
     8
 43
1.0
 76
     1
 77
     6
 78
     2
 67
     7
 79
     5
170
     0
171
     0
290
     0
174
     0
 93
        1
 44
0.0
173
     0
291
     1
 45
0.0
1001
ACAD
1000
AcDbSavedByObjectVersion
1070
     0
  0
VISUALSTYLE
  5
F8
102
{ACAD_XDICTIONARY
360
1EAD
102
}
102
{ACAD_REACTORS
330
EF
102
}
330
EF
100
AcDbVisualStyle
  2
Conceptual
 70
     9
 71
     3
 72
     2
 73
     1
 90
        0
 40
-0.6
 41
-30.0
 62
     5
 63
     7
 74
     2
 91
        2
 64
     7
 65
   257
 75
     1
175
     1
 42
40.0
 92
        8
 66
     7
 43
1.0
 76
     1
 77
     6
 78
     2
 67
     7
 79
     3
170
     0
171
     0
290
     0
174
     0
 93
        1
 44
0.0
173
     0
291
     0
 45
0.0
1001
ACAD
1000
AcDbSavedByObjectVersion
1070
     0
  0
VISUALSTYLE
  5
FA
102
{ACAD_XDICTIONARY
360
1EB1
102
}
102
{ACAD_REACTORS
330
EF
102
}
330
EF
100
AcDbVisualStyle
  2
Dim
 70
    11
 71
     2
 72
     2
 73
     1
 90
        0
 40
-0.6
 41
-30.0
 62
     5
 63
     7
 74
     1
 91
        4
 64
     7
 65
   257
 75
     1
175
     1
 42
1.0
 92
        8
 66
     7
 43
1.0
 76
     1
 77
     6
 78
     2
 67
     7
 79
     5
170
     0
171
     0
290
     0
174
     0
 93
        1
 44
-50.0
173
     0
291
     1
 45
0.0
1001
ACAD
1000
AcDbSavedByObjectVersion
1070
     0
  0
VISUALSTYLE
  5
1E6
102
{ACAD_XDICTIONARY
360
1EC3
102
}
102
{ACAD_REACTORS
330
EF
102
}
330
EF
100
AcDbVisualStyle
  2
EdgeColorOff
 70
    22
 71
     2
 72
     2
 73
     0
 90
        0
 40
-0.6
 41
-30.0
 62
     5
 63
     7
 74
     1
 91
        4
 64
     7
 65
   257
 75
     1
175
     1
 42
1.0
 92
        8
 66
     7
 43
1.0
 76
     1
 77
     6
 78
     2
 67
     7
 79
     5
170
     0
171
     0
290
     0
174
     0
 93
        1
 44
0.0
173
     0
291
     1
 45
0.0
1001
ACAD
1000
AcDbSavedByObjectVersion
1070
     0
  0
VISUALSTYLE
  5
FE
102
{ACAD_XDICTIONARY
360
1EB9
102
}
102
{ACAD_REACTORS
330
EF
102
}
330
EF
100
AcDbVisualStyle
  2
Facepattern
 70
    15
 71
     2
 72
     2
 73
     1
 90
        0
 40
-0.6
 41
-30.0
 62
     5
 63
     7
 74
     1
 91
        4
 64
     7
 65
   257
 75
     1
175
     1
 42
1.0
 92
        8
 66
     7
 43
1.0
 76
     1
 77
     6
 78
     2
 67
     7
 79
     5
170
     0
171
     0
290
     0
174
     0
 93
        1
 44
0.0
173
     0
291
     1
 45
0.0
1001
ACAD
1000
AcDbSavedByObjectVersion
1070
     0
  0
VISUALSTYLE
  5
F0
102
{ACAD_XDICTIONARY
360
1E9D
102
}
102
{ACAD_REACTORS
330
EF
102
}
330
EF
100
AcDbVisualStyle
  2
Flat
 70
     0
 71
     2
 72
     1
 73
     1
 90
        2
 40
-0.6
 41
30.0
 62
     5
 63
     7
 74
     0
 91
        0
 64
     7
 65
   257
 75
     1
175
     1
 42
1.0
 92
        8
 66
     7
 43
1.0
 76
     1
 77
     6
 78
     2
 67
     7
 79
     5
170
     0
171
     0
290
     0
174
     0
 93
       13
 44
0.0
173
     0
291
     1
 45
0.0
1001
ACAD
1000
AcDbSavedByObjectVersion
1070
     0
  0
VISUALSTYLE
  5
F1
102
{ACAD_XDICTIONARY
360
1E9F
102
}
102
{ACAD_REACTORS
330
EF
102
}
330
EF
100
AcDbVisualStyle
  2
FlatWithEdges
 70
     1
 71
     2
 72
     1
 73
     1
 90
        2
 40
-0.6
 41
30.0
 62
     5
 63
     7
 74
     1
 91
        0
 64
     7
 65
   257
 75
     1
175
     1
 42
1.0
 92
        0
 66
   257
 43
1.0
 76
     1
 77
     6
 78
     2
 67
     7
 79
     5
170
     0
171
     0
290
     0
174
     0
 93
       13
 44
0.0
173
     0
291
     1
 45
0.0
1001
ACAD
1000
AcDbSavedByObjectVersion
1070
     0
  0
VISUALSTYLE
  5
F2
102
{ACAD_XDICTIONARY
360
1EA1
102
}
102
{ACAD_REACTORS
330
EF
102
}
330
EF
100
AcDbVisualStyle
  2
Gouraud
 70
     2
 71
     2
 72
     2
 73
     1
 90
        2
 40
-0.6
 41
30.0
 62
     5
 63
     7
 74
     0
 91
        0
 64
     7
 65
   257
 75
     1
175
     1
 42
1.0
 92
        0
 66
     7
 43
1.0
 76
     1
 77
     6
 78
     2
 67
     7
 79
     5
170
     0
171
     0
290
     0
174
     0
 93
       13
 44
0.0
173
     0
291
     1
 45
0.0
1001
ACAD
1000
AcDbSavedByObjectVersion
1070
     0
  0
VISUALSTYLE
  5
F3
102
{ACAD_XDICTIONARY
360
1EA3
102
}
102
{ACAD_REACTORS
330
EF
102
}
330
EF
100
AcDbVisualStyle
  2
GouraudWithEdges
 70
     3
 71
     2
 72
     2
 73
     1
 90
        2
 40
-0.6
 41
30.0
 62
     5
 63
     7
 74
     1
 91
        0
 64
     7
 65
   257
 75
     1
175
     1
 42
1.0
 92
        0
 66
   257
 43
1.0
 76
     1
 77
     6
 78
     2
 67
     7
 79
     5
170
     0
171
     0
290
     0
174
     0
 93
       13
 44
0.0
173
     0
291
     1
 45
0.0
1001
ACAD
1000
AcDbSavedByObjectVersion
1070
     0
  0
VISUALSTYLE
  5
F7
102
{ACAD_XDICTIONARY
360
1EAB
102
}
102
{ACAD_REACTORS
330
EF
102
}
330
EF
100
AcDbVisualStyle
  2
Hidden
 70
     6
 71
     1
 72
     2
 73
     2
 90
        0
 40
-0.6
 41
-30.0
 62
     5
 63
     7
 74
     2
 91
        2
 64
     7
 65
   257
 75
     2
175
     1
 42
40.0
 92
        0
 66
   257
 43
1.0
 76
     1
 77
     6
 78
     2
 67
     7
 79
     3
170
     0
171
     0
290
     0
174
     0
 93
        1
 44
0.0
173
     0
291
     0
 45
0.0
1001
ACAD
1000
AcDbSavedByObjectVersion
1070
     0
  0
VISUALSTYLE
  5
1E4
102
{ACAD_XDICTIONARY
360
1EBF
102
}
102
{ACAD_REACTORS
330
EF
102
}
330
EF
100
AcDbVisualStyle
  2
JitterOff
 70
    20
 71
     2
 72
     2
 73
     0
 90
        0
 40
-0.6
 41
-30.0
 62
     5
 63
     7
 74
     1
 91
        4
 64
     7
 65
   257
 75
     1
175
     1
 42
1.0
 92
       10
 66
     7
 43
1.0
 76
     1
 77
     6
 78
     2
 67
     7
 79
     5
170
     0
171
     0
290
     0
174
     0
 93
        1
 44
0.0
173
     0
291
     1
 45
0.0
1001
ACAD
1000
AcDbSavedByObjectVersion
1070
     0
  0
VISUALSTYLE
  5
FD
102
{ACAD_XDICTIONARY
360
1EB7
102
}
102
{ACAD_REACTORS
330
EF
102
}
330
EF
100
AcDbVisualStyle
  2
Linepattern
 70
    14
 71
     2
 72
     2
 73
     1
 90
        0
 40
-0.6
 41
-30.0
 62
     5
 63
     7
 74
     1
 91
        4
 64
     7
 65
   257
 75
     7
175
     7
 42
1.0
 92
        8
 66
     7
 43
1.0
 76
     1
 77
     6
 78
     2
 67
     7
 79
     5
170
     0
171
     0
290
     0
174
     0
 93
        1
 44
0.0
173
     0
291
     1
 45
0.0
1001
ACAD
1000
AcDbSavedByObjectVersion
1070
     0
  0
VISUALSTYLE
  5
1E5
102
{ACAD_XDICTIONARY
360
1EC1
102
}
102
{ACAD_REACTORS
330
EF
102
}
330
EF
100
AcDbVisualStyle
  2
OverhangOff
 70
    21
 71
     2
 72
     2
 73
     0
 90
        0
 40
-0.6
 41
-30.0
 62
     5
 63
     7
 74
     1
 91
        4
 64
     7
 65
   257
 75
     1
175
     1
 42
1.0
 92
        9
 66
     7
 43
1.0
 76
     1
 77
     6
 78
     2
 67
     7
 79
     5
170
     0
171
     0
290
     0
174
     0
 93
        1
 44
0.0
173
     0
291
     1
 45
0.0
1001
ACAD
1000
AcDbSavedByObjectVersion
1070
     0
  0
VISUALSTYLE
  5
F9
102
{ACAD_XDICTIONARY
360
1EAF
102
}
102
{ACAD_REACTORS
330
EF
102
}
330
EF
100
AcDbVisualStyle
  2
Realistic
 70
     8
 71
     2
 72
     2
 73
     0
 90
        2
 40
-0.6
 41
30.0
 62
     5
 63
     7
 74
     0
 91
        0
 64
     7
 65
   257
 75
     1
175
     1
 42
1.0
 92
        8
 66
   257
 43
1.0
 76
     1
 77
     6
 78
     2
 67
     7
 79
     3
170
     0
171
     0
290
     0
174
     0
 93
       13
 44
0.0
173
     0
291
     0
 45
0.0
1001
ACAD
1000
AcDbSavedByObjectVersion
1070
     0
  0
VISUALSTYLE
  5
1F3
102
{ACAD_XDICTIONARY
360
1ECD
102
}
102
{ACAD_REACTORS
330
EF
102
}
330
EF
100
AcDbVisualStyle
  2
Shaded
 70
    27
 71
     2
 72
     2
 73
     1
 90
        2
 40
-0.6
 41
30.0
 62
     5
 63
     7
 74
     0
 91
        4
 64
     7
 65
   257
 75
     1
175
     1
 42
1.0
 92
        8
 66
   257
 43
1.0
 76
     1
 77
     6
 78
     2
 67
     8
 79
     3
170
     0
171
     0
290
     0
174
     0
 93
        5
 44
0.0
173
     0
291
     0
 45
0.0
1001
ACAD
1000
AcDbSavedByObjectVersion
1070
     0
  0
VISUALSTYLE
  5
1F2
102
{ACAD_XDICTIONARY
360
1ECB
102
}
102
{ACAD_REACTORS
330
EF
102
}
330
EF
100
AcDbVisualStyle
  2
Shaded with edges
 70
    26
 71
     2
 72
     2
 73
     1
 90
        2
 40
-0.6
 41
30.0
 62
     5
 63
     7
 74
     1
 91
        2
 64
     7
 65
   257
 75
     2
175
     1
 42
1.0
 92
        8
 66
   257
 43
1.0
 76
     1
 77
     6
 78
     2
 67
     7
 79
     3
170
     0
171
     0
290
     0
174
     0
 93
        5
 44
0.0
173
     0
291
     0
 45
0.0
1001
ACAD
1000
AcDbSavedByObjectVersion
1070
     0
  0
VISUALSTYLE
  5
1EF
102
{ACAD_XDICTIONARY
360
1EC5
102
}
102
{ACAD_REACTORS
330
EF
102
}
330
EF
100
AcDbVisualStyle
  2
Shades of Gray
 70
    23
 71
     2
 72
     2
 73
     3
 90
        0
 40
-0.6
 41
-30.0
 62
     5
 63
     7
 74
     2
 91
        2
 64
     7
 65
     7
 75
     1
175
     1
 42
40.0
 92
        8
 66
     7
 43
1.0
 76
     1
 77
     6
 78
     2
 67
     7
 79
     3
170
     0
171
     0
290
     0
174
     0
 93
        1
 44
0.0
173
     0
291
     0
 45
0.0
1001
ACAD
1000
AcDbSavedByObjectVersion
1070
     0
  0
VISUALSTYLE
  5
1F0
102
{ACAD_XDICTIONARY
360
1EC7
102
}
102
{ACAD_REACTORS
330
EF
102
}
330
EF
100
AcDbVisualStyle
  2
Sketchy
 70
    24
 71
     1
 72
     2
 73
     2
 90
        0
 40
-0.6
 41
-30.0
 62
     5
 63
     7
 74
     2
 91
        2
 64
     7
 65
     7
 75
     1
175
     1
 42
40.0
 92
       11
 66
     7
 43
1.0
 76
     1
 77
     6
 78
     2
 67
     7
 79
     6
170
     0
171
     0
290
     0
174
     0
 93
        1
 44
0.0
173
     0
291
     0
 45
0.0
1001
ACAD
1000
AcDbSavedByObjectVersion
1070
     0
  0
VISUALSTYLE
  5
FC
102
{ACAD_XDICTIONARY
360
1EB5
102
}
102
{ACAD_REACTORS
330
EF
102
}
330
EF
100
AcDbVisualStyle
  2
Thicken
 70
    13
 71
     2
 72
     2
 73
     1
 90
        0
 40
-0.6
 41
-30.0
 62
     5
 63
     7
 74
     1
 91
        4
 64
     7
 65
   257
 75
     1
175
     1
 42
1.0
 92
       12
 66
     7
 43
1.0
 76
     1
 77
     6
 78
     2
 67
     7
 79
     5
170
     0
171
     0
290
     0
174
     0
 93
        1
 44
0.0
173
     0
291
     1
 45
0.0
1001
ACAD
1000
AcDbSavedByObjectVersion
1070
     0
  0
VISUALSTYLE
  5
F6
102
{ACAD_XDICTIONARY
360
1EA9
102
}
102
{ACAD_REACTORS
330
EF
102
}
330
EF
100
AcDbVisualStyle
  2
Wireframe
 70
     5
 71
     0
 72
     2
 73
     0
 90
        0
 40
-0.6
 41
-30.0
 62
     5
 63
     7
 74
     1
 91
        4
 64
     7
 65
   257
 75
     1
175
     1
 42
1.0
 92
        0
 66
   257
 43
1.0
 76
     1
 77
     6
 78
     2
 67
     7
 79
     3
170
     0
171
     0
290
     0
174
     0
 93
        1
 44
0.0
173
     0
291
     0
 45
0.0
1001
ACAD
1000
AcDbSavedByObjectVersion
1070
     0
  0
VISUALSTYLE
  5
1F1
102
{ACAD_XDICTIONARY
360
1EC9
102
}
102
{ACAD_REACTORS
330
EF
102
}
330
EF
100
AcDbVisualStyle
  2
X-Ray
 70
    25
 71
     2
 72
     2
 73
     1
 90
        1
 40
0.5
 41
-30.0
 62
     5
 63
     7
 74
     1
 91
        0
 64
     7
 65
   257
 75
     1
175
     1
 42
1.0
 92
        8
 66
     7
 43
1.0
 76
     1
 77
     6
 78
     2
 67
     7
 79
     3
170
     0
171
     0
290
     0
174
     0
 93
       13
 44
0.0
173
     0
291
     0
 45
0.0
1001
ACAD
1000
AcDbSavedByObjectVersion
1070
     0
  0
DICTIONARYVAR
  5
146
102
{ACAD_REACTORS
330
5E
102
}
330
5E
100
DictionaryVariables
280
     0
  1
1:1
  0
DICTIONARYVAR
  5
259
102
{ACAD_REACTORS
330
5E
102
}
330
5E
100
DictionaryVariables
280
     0
  1
3.500000
  0
DICTIONARYVAR
  5
25A
102
{ACAD_REACTORS
330
5E
102
}
330
5E
100
DictionaryVariables
280
     0
  1
acadiso.lin
  0
DICTIONARYVAR
  5
145
102
{ACAD_REACTORS
330
5E
102
}
330
5E
100
DictionaryVariables
280
     0
  1
STANDARD
  0
DICTIONARYVAR
  5
84
102
{ACAD_REACTORS
330
5E
102
}
330
5E
100
DictionaryVariables
280
     0
  1
STANDARD
  0
DICTIONARYVAR
  5
227
102
{ACAD_REACTORS
330
5E
102
}
330
5E
100
DictionaryVariables
280
     0
  1
Metric50
  0
DICTIONARYVAR
  5
228
102
{ACAD_REACTORS
330
5E
102
}
330
5E
100
DictionaryVariables
280
     0
  1
Metric50
  0
DICTIONARYVAR
  5
5F
102
{ACAD_REACTORS
330
5E
102
}
330
5E
100
DictionaryVariables
280
     0
  1
2
  0
DICTIONARYVAR
  5
63
102
{ACAD_REACTORS
330
5E
102
}
330
5E
100
DictionaryVariables
280
     0
  1
1
  0
DICTIONARYVAR
  5
1E3E
102
{ACAD_REACTORS
330
5E
102
}
330
5E
100
DictionaryVariables
280
     0
  1
0
  0
DICTIONARYVAR
  5
1AE
102
{ACAD_REACTORS
330
5E
102
}
330
5E
100
DictionaryVariables
280
     0
  1
0
  0
DICTIONARYVAR
  5
1AF
102
{ACAD_REACTORS
330
5E
102
}
330
5E
100
DictionaryVariables
280
     0
  1
0
  0
DICTIONARYVAR
  5
1E3C
102
{ACAD_REACTORS
330
5E
102
}
330
5E
100
DictionaryVariables
280
     0
  1
2
  0
DICTIONARYVAR
  5
1E3B
102
{ACAD_REACTORS
330
5E
102
}
330
5E
100
DictionaryVariables
280
     0
  1
1
  0
DICTIONARYVAR
  5
1E8E
102
{ACAD_REACTORS
330
5E
102
}
330
5E
100
DictionaryVariables
280
     0
  1
80.000000
  0
DICTIONARYVAR
  5
1E8D
102
{ACAD_REACTORS
330
5E
102
}
330
5E
100
DictionaryVariables
280
     0
  1
5.000000
  0
DICTIONARYVAR
  5
1E3D
102
{ACAD_REACTORS
330
5E
102
}
330
5E
100
DictionaryVariables
280
     0
  1
127
  0
DICTIONARYVAR
  5
1E8F
102
{ACAD_REACTORS
330
5E
102
}
330
5E
100
DictionaryVariables
280
     0
  1
2
  0
DICTIONARY
  5
1ED1
330
21C
100
AcDbDictionary
280
     1
281
     1
  3
ACAD_XREC_ROUNDTRIP
360
1ED2
  0
DICTIONARY
  5
1E96
330
D3
100
AcDbDictionary
280
     1
281
     1
  3
ACAD_XREC_ROUNDTRIP
360
1E97
  0
DICTIONARY
  5
1E98
330
D7
100
AcDbDictionary
280
     1
281
     1
  3
ACAD_XREC_ROUNDTRIP
360
1E99
  0
DICTIONARY
  5
1E93
330
22
100
AcDbDictionary
280
     1
281
     1
  3
ACAD_XREC_ROUNDTRIP
360
1E94
  0
DICTIONARY
  5
1F9
330
ED
100
AcDbDictionary
280
     1
281
     1
  3
ACAD_XREC_ROUNDTRIP
360
1E9B
  3
FBXASSET
360
1FA
  0
DICTIONARY
  5
1F7
330
EC
100
AcDbDictionary
280
     1
281
     1
  3
ACAD_XREC_ROUNDTRIP
360
1E9A
  3
FBXASSET
360
1F8
  0
DICTIONARY
  5
173
330
EE
100
AcDbDictionary
280
     1
281
     1
  3
ACAD_XREC_ROUNDTRIP
360
1E9C
  3
BUMPTILE
360
175
  3
DIFFUSETILE
360
174
  3
FBXASSET
360
1FB
  3
OPACITYTILE
360
176
  3
REFLECTIONTILE
360
177
  0
DICTIONARY
  5
1EBD
330
12E
100
AcDbDictionary
280
     1
281
     1
  3
ACAD_XREC_ROUNDTRIP
360
1EBE
  0
DICTIONARY
  5
1ECF
330
21A
100
AcDbDictionary
280
     1
281
     1
  3
ACAD_XREC_ROUNDTRIP
360
1ED0
  0
DICTIONARY
  5
162
330
7F
100
AcDbDictionary
280
     1
281
     1
  3
ACAD_ROUNDTRIP_2008_TABLESTYLE_CELLSTYLEMAP
360
1E90
  3
ACAD_XREC_ROUNDTRIP
360
1E95
  0
DICTIONARY
  5
1EA7
330
F5
100
AcDbDictionary
280
     1
281
     1
  3
ACAD_XREC_ROUNDTRIP
360
1EA8
  0
DICTIONARY
  5
1EA5
330
F4
100
AcDbDictionary
280
     1
281
     1
  3
ACAD_XREC_ROUNDTRIP
360
1EA6
  0
DICTIONARY
  5
1EB3
330
FB
100
AcDbDictionary
280
     1
281
     1
  3
ACAD_XREC_ROUNDTRIP
360
1EB4
  0
DICTIONARY
  5
1EBB
330
FF
100
AcDbDictionary
280
     1
281
     1
  3
ACAD_XREC_ROUNDTRIP
360
1EBC
  0
DICTIONARY
  5
1EAD
330
F8
100
AcDbDictionary
280
     1
281
     1
  3
ACAD_XREC_ROUNDTRIP
360
1EAE
  0
DICTIONARY
  5
1EB1
330
FA
100
AcDbDictionary
280
     1
281
     1
  3
ACAD_XREC_ROUNDTRIP
360
1EB2
  0
DICTIONARY
  5
1EC3
330
1E6
100
AcDbDictionary
280
     1
281
     1
  3
ACAD_XREC_ROUNDTRIP
360
1EC4
  0
DICTIONARY
  5
1EB9
330
FE
100
AcDbDictionary
280
     1
281
     1
  3
ACAD_XREC_ROUNDTRIP
360
1EBA
  0
DICTIONARY
  5
1E9D
330
F0
100
AcDbDictionary
280
     1
281
     1
  3
ACAD_XREC_ROUNDTRIP
360
1E9E
  0
DICTIONARY
  5
1E9F
330
F1
100
AcDbDictionary
280
     1
281
     1
  3
ACAD_XREC_ROUNDTRIP
360
1EA0
  0
DICTIONARY
  5
1EA1
330
F2
100
AcDbDictionary
280
     1
281
     1
  3
ACAD_XREC_ROUNDTRIP
360
1EA2
  0
DICTIONARY
  5
1EA3
330
F3
100
AcDbDictionary
280
     1
281
     1
  3
ACAD_XREC_ROUNDTRIP
360
1EA4
  0
DICTIONARY
  5
1EAB
330
F7
100
AcDbDictionary
280
     1
281
     1
  3
ACAD_XREC_ROUNDTRIP
360
1EAC
  0
DICTIONARY
  5
1EBF
330
1E4
100
AcDbDictionary
280
     1
281
     1
  3
ACAD_XREC_ROUNDTRIP
360
1EC0
  0
DICTIONARY
  5
1EB7
330
FD
100
AcDbDictionary
280
     1
281
     1
  3
ACAD_XREC_ROUNDTRIP
360
1EB8
  0
DICTIONARY
  5
1EC1
330
1E5
100
AcDbDictionary
280
     1
281
     1
  3
ACAD_XREC_ROUNDTRIP
360
1EC2
  0
DICTIONARY
  5
1EAF
330
F9
100
AcDbDictionary
280
     1
281
     1
  3
ACAD_XREC_ROUNDTRIP
360
1EB0
  0
DICTIONARY
  5
1ECD
330
1F3
100
AcDbDictionary
280
     1
281
     1
  3
ACAD_XREC_ROUNDTRIP
360
1ECE
  0
DICTIONARY
  5
1ECB
330
1F2
100
AcDbDictionary
280
     1
281
     1
  3
ACAD_XREC_ROUNDTRIP
360
1ECC
  0
DICTIONARY
  5
1EC5
330
1EF
100
AcDbDictionary
280
     1
281
     1
  3
ACAD_XREC_ROUNDTRIP
360
1EC6
  0
DICTIONARY
  5
1EC7
330
1F0
100
AcDbDictionary
280
     1
281
     1
  3
ACAD_XREC_ROUNDTRIP
360
1EC8
  0
DICTIONARY
  5
1EB5
330
FC
100
AcDbDictionary
280
     1
281
     1
  3
ACAD_XREC_ROUNDTRIP
360
1EB6
  0
DICTIONARY
  5
1EA9
330
F6
100
AcDbDictionary
280
     1
281
     1
  3
ACAD_XREC_ROUNDTRIP
360
1EAA
  0
DICTIONARY
  5
1EC9
330
1F1
100
AcDbDictionary
280
     1
281
     1
  3
ACAD_XREC_ROUNDTRIP
360
1ECA
  0
XRECORD
  5
1ED2
102
{ACAD_REACTORS
330
1ED1
102
}
330
1ED1
100
AcDbXrecord
280
     1
102
DISPLAYNAME
  1
Metric50
102
FLAGS
 90
        0
  0
XRECORD
  5
1E97
102
{ACAD_REACTORS
330
1E96
102
}
330
1E96
100
AcDbXrecord
280
     1
102
SHADEPLOT
 70
     0
102
SHADEPLOTRESLEVEL
 70
     2
102
SHADEPLOTCUSTOMDPI
 70
   300
  0
XRECORD
  5
1E99
102
{ACAD_REACTORS
330
1E98
102
}
330
1E98
100
AcDbXrecord
280
     1
102
SHADEPLOT
 70
     0
102
SHADEPLOTRESLEVEL
 70
     2
102
SHADEPLOTCUSTOMDPI
 70
   300
  0
XRECORD
  5
1E94
102
{ACAD_REACTORS
330
1E93
102
}
330
1E93
100
AcDbXrecord
280
     1
102
SHADEPLOT
 70
     0
102
SHADEPLOTRESLEVEL
 70
     2
102
SHADEPLOTCUSTOMDPI
 70
   300
  0
XRECORD
  5
1E9B
102
{ACAD_REACTORS
330
1F9
102
}
330
1F9
100
AcDbXrecord
280
     1
102
MATERIAL
148
0.0
149
0.0
149
0.0
 93
        0
 94
       63
282
     0
 72
     1
 77
     1
171
     1
175
     1
179
     1
273
     0
  0
XRECORD
  5
1FA
102
{ACAD_REACTORS
330
1F9
102
}
330
1F9
100
AcDbXrecord
280
     1
 70
     1
 90
429727718
  1
D62C5603-E3A1-4AEA-B7FB-FE5D8D0755AF
310
504B03040A0000080000CC70623B3DEE336E79000000790000001B0000006175746F6465736B2D64657369676E2D7061636B6167652E786D6C3C3F786D6C2076657273696F6E3D22312E302220656E636F64696E673D227574662D3822203F3E3C666F726D6174733E3C666F726D61743E687474703A2F2F736368656D612E
310
6175746F6465736B2E636F6D2F64657369676E2D7061636B6167652F323030393C2F666F726D61743E3C2F666F726D6174733E504B0304140006080800CC70623BD486FD9CA0000000F4000000130000005B436F6E74656E745F54797065735D2E786D6C7D8EC10E82300C865F65E91D8A1E8C310C0EEA1BF002731658846E
310
D98AC1B77784ABF1D8FE5FBFBF75BBCE937A534CCEB38643598122B6FEE978D0B0485F9C41B54DDD7D022595594E1A469170414C76A4D9A4D207E29CF43ECE46F218070CC6BECC4078ACAA135ACF422C856C0E68EA1BF5669944DDD7BCDE7B1F8E415D77AECB980613C2E4AC91FC167A2B244592486606FC29C8FD7F045B9A
310
EF7053A7E60B504B0304140006080800CC70623B853B8169EB0000007C01000008000000636F72652E786D6C8D90416EC3201045AF62CDB6C206821CC7C244919D9CA01740401C94182C03558F5F9C3852BBEB6A467FFE9B197D7EFC9E1EC5975982F5AE035262288C535E5B377690E21535501C055FBC8FBF6C503839990E
310
5619041F179FE64D52DE45E362569DD7661365082642A11EB9E920A89B99642953CC8E702F67A9EE7234257977194EC9EAE275C4EABCCF5EAD5940D4AC6F0E35A568B8F43562CD7046CD199FD07E60174276A7BE677B5EADB0E0D14EEFFB6A31321A0D82627C4084204C3F096B71DD52F6819B16635EADF63F509AF53FA164
310
5DDCD1EDDD17164090FCC8732078B56691CB33A85CD7DCC40F504B0304140006080800CC70623B55019EA25F0000007C00000007000000636E782E786D6C4DCB3B0E80201045D1AD90E915ED2CF8AC45050C11660C8261F98AB1B07AC9C97D42D718D865D3E909258CFD00CCE24AC6E326A164D74DC0B4128928FF32603847
310
2BA13128B1252AC747C6BAB984FC68F0B87FE8960A5C09FE86CFB69FBA01504B0304140006080800CC70623BDBABAAF470010000D40300000C0000006662782F636F72652E786D6CC553D16E823014FD95A6AF4B694182CC941A83FA05FB810A9511A125A5257EFE2E82712ECEB8A7F100CD39F7F69E734AF9FADC366850B6
310
AF8DCE7018308C942E4C59EB2AC3DE1D498AD15A706B8CFB56869196ADCAF00863C12B6B7C374385D14E6907A836A59A41D9F7CA615434B0C8705F7CAA5606D23BA8E84F41278B93AC54100640439DE0BDB320004D43C63716C7C399D30917DCFBBA9CD9BA8469F5B156168B24CED3F7248AC8769F27244EB73B92EED8862C
310
B7F13E0C179B3C8F979C8ECD82BBBABDAA2BAC924E9558448CBD9330242CFA08E3154B5651FCC6D215639C8EE5774DBE2B5F6CF2B5768B68963BB5F5588420E442FC700B1139D4CB01F450C1E918227C2E09DF070D8140C84E1E9AAB8F1340832A9CB13130A5F1376A908D57309505ECF2A0DF179C4E9D30F5B239B87E3823
310
7A79C6F31DE1A8A5AEC08474B03C7837EAE4938639B44E5932B833D2C6B6B279CDC613877FA26EE21F4A2A4C63EC7F29A2F301D1F9F7A0E37D145F504B0304140006080800CC70623B9C113CC27E0000009D0000000B0000006662782F636E782E786D6C4DCCDF0A83201C86E15B91DFB94BFB330DD428C8FB886521330DA7
310
6397BF1A1DECE883878F57749FCDA1B7892F1BBC047A23808C7F84D9FA55424E0BE6803A256208E9EF06C84F9B91703228B1C690F78B66B34CD9A5439DF5CF0BFBF65E35BCA1B8D6A5C6F540381E886698B5741C695F9503EBA150A2F8958E3DC3EA0B504B0304140006080800CC70623B7DF2F77C2A010000120200003100
310
00006662782F41393633353835312D344632462D344230382D423046372D3739314545314133324237412F636F72652E786D6C8D51DB8EC22014FC15C2939B0D2DB4B45643319AE817EC0F6041255A68B86CFCFC856D4D76DF7CE190393373060EDB3DC707F856CE6B6B7A480A0C81328395DA5C7B18C3057510EC3873D686
310
3F34088C18550F330C39BB3A1BA7051AAC09CA84841A2BD5020AEF55806078A44B0FFD7053A328440C89E1EFC52486BBB8AA8214A99D789CF9E05200300FC927E4FB4D5B375D43103D5527440FB843077C5AA3F5861C8F645F5787F59E95B390B318B55CE45AA638FAA2957BD7248B390B7A7CC51F9C124149C82B8C378810
310
84AB2F42B7B8DD56F413775B8C5999E9FF4471926F8AA236A1AE96B8B3CC434E5839373893369E1FAF30EA395917409EB7F26AF8801C171837A4A6AC9C89E9F9C9B1A58BA30FD6A5EF5DDDCF894B9AD9B6A59C957943A9FCAE2FD5BC4DFE03504B0304140006080800CC70623BAD7543B64E01000033030000300000006662
310
782F41393633353835312D344632462D344230382D423046372D3739314545314133324237412F636E782E786D6CD593CD6EC32010845F0571AD6CE3D48AD20813A9873E410FBD12D82434182C7EAAE6EDBB2424CD25871E7B41D6EC30B3FA84F9E67BB2E40B4234DE8DB46F1925E094D7C6ED479AD3AE5951B2113C789FEE
310
6C943839C1488B4C05DF079FE72A69D8C96C13AAD6B8631503449F83828872B949AC57D26200B826A308D316B4064D6E46FCDA41C05550DC9E483A00797BFD207EFB092A45DE9514C1BBD22178396BD39D891265658C238DEA00936C654E5E433CB65A26D9F6EDB5EBC14EBF49A45CB856E66048291F6939A9A81BB5C89177
310
38143CA680F4AA299D66A042CEB3354A2684DC9D8D178FE0D9B8B41CAAD720F880EE7EF93C0C18769E099ECC04D5A102C8049A8A05632F4DDF376CF1DE0F6BB65C2F8627B65A33C6BB62177CEBBDAD973006829F89F22E814B54F4BC2BE347F8AA8F681390B50FA73F804400B5F542E796F19FF974E7F78DB802FE05E20750
310
4B0304140006080800CC70623BE75B7789680500003C100000340000006662782F41393633353835312D344632462D344230382D423046372D3739314545314133324237412F6F626A656374732E786D6CAD575B8F9B3818FD2B887D06C22499CB8AA1CA655245D5B455A356FB305264C061D8018C6C3393D95FBFC7600890
310
A4CD5EF210B0B1BFEBF98E3F7B1FF6596ABC522E1296DF9BAE3D320D9A872C4AF2F8DE2CE5CEBA358D0FBEC719939D65A691938CDE9B6ADAF4BD98B3B2D05311DD91329583D9D5FC0F438434A7A611A644887B5384CF34233629258BA878B12322891DEFF6B66BD70BFB62634E8AE781D082709A4B588AF91C528CDA28B73F
310
1C998EEF39EABBEFA97FBD6A7C7E9553F9D3D79FE442923C3C523610337627CB87ABE99D359D4CC6D6E4FACAB5E6ABF9D2726FC6A3C5F56271377BB88362213924694B38DD99FE47C48627A1E7D49F5A8BB5E1A74C0A599ED3B0F21F1E56366B89112D681E218F0915D0D6F17AD41FBA2A369DCF6335D62ABBD39779D5DDD1
310
11D4D8DE3CBB96B2E04FB8202E41051754A1AA8E8F76B4C6DFE810B580B1547F4B84911149794252234D024EF8BBE963A95AE27B3D310A9D5C215C7960FAEE415ED75694C6AFB17BCACA5D99A60A9AA65F217B0BFC53292ACB92BF283FAD0D3621576592CB5BED907C2FA8E9DF794E35E97BEA31BED21FEB401ABB94C44839
310
DCACBF0E1C5DA8DA5B2F4DFFD32AD86F543D9E565E7056502E157C00AD2671CD534549AB752FCA9CDA00677A313F04E51B22FF19E57B300579E3C97EB29F682D92935CEC18CF901B7B54FD8C51F362B56FC72FE0B3C1EAE335EDCCBF5AEC39ADB17DC238973F804BA5E6F6BFE7AF1FB32E523BE9F3BD571418E3631DCA4D48
310
5250CF639223210A9446CA30052EDF057BD35F8329C1ECD84552BF0DC8D18BE7BCE23BFE6BD960AB4A7DE79923A103BEBD80F911CBAA2C60DB19B01CF164A5583B772EE6D3FFA56666CBCDA74DC97724A48F9A58967497E489C4D979006FD7A05E227A1EBDD0F737C623387A9C844D3709995625106D157315F8B8392CD4E0
310
A0B9A720C4BE9829CEF37EA1E13111214D53925356365ADA634861B52519DD27A00AEB808EAF0628E6F435519D446F45CF2C9CF5214F0A15B2F6D06B79DA3EE3CBF7F56780D2F4E7EF73A0F5E5B02A38D07DC852C6B7C1FBB6664213E0C39E3EBA7FF4E1AD23EA2829407C85E586727488B751B2DB9502BC7B228A3FD68B6E
310
A65A22397E690AA8D158D7E404EC8CDA235CC3B7D1898680131CEC2CDF2638C65196279577750F15884AEE19F94199155B92B13297978469D4F8D358DF0AEF7631E28DC8F0D9F437D5D39A83B2231A1D52D543813A824EF8D44BCFF2FA6A31BD1E8DAD87F1CCB526B3879935BF59CDADD5C37479BB1CDD4CA7B3556B516589
310
EF352754B706114D9C885EC9131DE6EFEB43D99AFE2391C2F958179413D7CFEF6B1B6DB1E7600F00DE6E5C67454A339A4BA2E0FBA85ED26F045D454F463DBFCE484C2F90F2E5E3666003662ED8F755951A7D1BECD5B30B550B2785C8E7320B7292A4838DDA71BBC863ED7613CAF659337A3354231D4FF4A182A54904C2898C
310
98B28C4AD0CE056CCF332A80986E571EE9DBC305BB5FEB7E509220A58D25CF042D712A806AC0AD0C657FDEF80D2D9CEAA2EE4D1C76F60BFE74219A06527D6F82DF6412526107381E55E353090704D085B52408A8913C4ED159D79BDA71BB4BC506F4831350EB6F975CD22D69BF7AC49B91A2C0A9DDA3D5CA36AD20FC478E37
310
E61844E2352865EBCB61A275A65283CAAA9DD27703B4102F5AF51EF5F573B75CBB5AD38BC845F7A49F82A0966A49C2E3EA5EA0ECD326CD965F1DB402C6FA8B51A4658C5C5E2EC9E214602E55810345408596591009A82E7E7FFACA19EEA299B14A0081A705CB3296EBC14CDF658DCD336EA6D1136881AAEB87B81AB9EE53D5
310
F5EB8BC8362082DA24122F98680A4E7930C01A0079749CEA14382A0783E5EBA5A10F8C098456A03D6A4AEB6BB881E2513747552A5DB22C7EDAF83BD5528081A365F7FF06504B0304140006080000CC70623B000000000000000000000000350000006662782F41393633353835312D344632462D344230382D423046372D37
310
39314545314133324237412F76657274696365732E62696E504B0304140006080800CC70623BF270F1330600000004000000360000006662782F41393633353835312D344632462D344230382D423046372D3739314545314133324237412F747269616E676C65732E62696E636660600000504B0304140006080000CC7062
310
3B000000000000000000000000370000006662782F41393633353835312D344632462D344230382D423046372D3739314545314133324237412F617474726962757465732E62696E504B0304140006080800CC70623B08DA0BD19000000041010000360000006662782F41393633353835312D344632462D344230382D4230
310
46372D3739314545314133324237412F6469726563746F72792E786D6C858F410AC3201045AF22B36F53E9A60B35CBEEBAE80D244E44489C6234F4F835464A48035D0DF398FF9F8AF63D0E6CC63039F212F8F9020C7D47C6792B21C5FE7403D62A1188E2E60C98D7234A5830286103A55745067B9D86B8A3CF9C7F90C11DE6
310
07FB144396D7B6A82D282E9A152AD114D5EF2CB866EEE831B8EEA07A7BB5A8D7D61A2BAAEB7FD5F70921FF497D00504B0304140006080800CC70623BEDD1DC58FD000000A00100003B0000006662782F41393633353835312D344632462D344230382D423046372D3739314545314133324237412F7265736F75726365732F
310
636F72652E786D6C8D504B6E833010BD0A9A6D65B00922041947112427E8052C33A156828DFCA97AFC9A40A576D7CDCCE87D344F8F9FBFE667F689CE6B6B3A6039850C8DB2A336530731DC4903D95970676DF82583CCC8193B5861107C72362E3BA4AC096842428D1D7107A5F7182053CF7474E0D507CE32973124857FE48B
310
540F3961CEF244279DE03EB81420DB9EAC1384436FA353E879B1B182C7A8C75DA3C7F453DF353A1075D537A7BA6464B8F535A99AE14A9A2BBD90E350DD183B5CFABE3AF262350B1EF4FC9351399401471025A527C218A1E53BAB5A5AB765F5469B96525EACF23FA6B88CFF34456DC2A1DCE36E360F82A5202F42F062ED2BAD
310
579969AFDD8A6F504B010214000A0000080000CC70623B3DEE336E79000000790000001B00000000000000000000000000000000006175746F6465736B2D64657369676E2D7061636B6167652E786D6C504B01021400140006080800CC70623BD486FD9CA0000000F40000001300000000000000000000000000B20000005B
310
436F6E74656E745F54797065735D2E786D6C504B01021400140006080800CC70623B853B8169EB0000007C010000080000000000000000000000000083010000636F72652E786D6C504B01021400140006080800CC70623B55019EA25F0000007C000000070000000000000000000000000094020000636E782E786D6C504B
310
01021400140006080800CC70623BDBABAAF470010000D40300000C00000000000000000000000000180300006662782F636F72652E786D6C504B01021400140006080800CC70623B9C113CC27E0000009D0000000B00000000000000000000000000B20400006662782F636E782E786D6C504B01021400140006080800CC70
310
623B7DF2F77C2A010000120200003100000000000000000000000000590500006662782F41393633353835312D344632462D344230382D423046372D3739314545314133324237412F636F72652E786D6C504B01021400140006080800CC70623BAD7543B64E010000330300003000000000000000000000000000D2060000
310
6662782F41393633353835312D344632462D344230382D423046372D3739314545314133324237412F636E782E786D6C504B01021400140006080800CC70623BE75B7789680500003C10000034000000000000000000000000006E0800006662782F41393633353835312D344632462D344230382D423046372D3739314545
310
314133324237412F6F626A656374732E786D6C504B01021400140006080000CC70623B0000000000000000000000003500000000000000000000000000280E00006662782F41393633353835312D344632462D344230382D423046372D3739314545314133324237412F76657274696365732E62696E504B01021400140006
310
080800CC70623BF270F133060000000400000036000000000000000000000000007B0E00006662782F41393633353835312D344632462D344230382D423046372D3739314545314133324237412F747269616E676C65732E62696E504B01021400140006080000CC70623B0000000000000000000000003700000000000000
310
000000000000D50E00006662782F41393633353835312D344632462D344230382D423046372D3739314545314133324237412F617474726962757465732E62696E504B01021400140006080800CC70623B08DA0BD1900000004101000036000000000000000000000000002A0F00006662782F41393633353835312D344632
310
462D344230382D423046372D3739314545314133324237412F6469726563746F72792E786D6C504B01021400140006080800CC70623BEDD1DC58FD000000A00100003B000000000000000000000000000E1000006662782F41393633353835312D344632462D344230382D423046372D3739314545314133324237412F7265
310
736F75726365732F636F72652E786D6C504B0506000000000E000E0080040000641100000000
  0
XRECORD
  5
1E9A
102
{ACAD_REACTORS
330
1F7
102
}
330
1F7
100
AcDbXrecord
280
     1
102
MATERIAL
148
0.0
149
0.0
149
0.0
 93
        0
 94
       63
282
     0
 72
     1
 77
     1
171
     1
175
     1
179
     1
273
     0
  0
XRECORD
  5
1F8
102
{ACAD_REACTORS
330
1F7
102
}
330
1F7
100
AcDbXrecord
280
     1
 70
     1
 90
429727718
  1
30362254-06B7-45E0-A893-8CFA70E3D6BC
310
504B03040A0000080000CC70623B3DEE336E79000000790000001B0000006175746F6465736B2D64657369676E2D7061636B6167652E786D6C3C3F786D6C2076657273696F6E3D22312E302220656E636F64696E673D227574662D3822203F3E3C666F726D6174733E3C666F726D61743E687474703A2F2F736368656D612E
310
6175746F6465736B2E636F6D2F64657369676E2D7061636B6167652F323030393C2F666F726D61743E3C2F666F726D6174733E504B0304140006080800CC70623BD486FD9CA0000000F4000000130000005B436F6E74656E745F54797065735D2E786D6C7D8EC10E82300C865F65E91D8A1E8C310C0EEA1BF002731658846E
310
D98AC1B77784ABF1D8FE5FBFBF75BBCE937A534CCEB38643598122B6FEE978D0B0485F9C41B54DDD7D022595594E1A469170414C76A4D9A4D207E29CF43ECE46F218070CC6BECC4078ACAA135ACF422C856C0E68EA1BF5669944DDD7BCDE7B1F8E415D77AECB980613C2E4AC91FC167A2B244592486606FC29C8FD7F045B9A
310
EF7053A7E60B504B0304140006080800CC70623B1EC5D7A3EB0000007C01000008000000636F72652E786D6C8D90416EC3201045AF82665B6103C6756C6122AB4D4ED00B204C5C94182C03558F5F9C3852BBEB6A467FFE9B197D71FC9E6FE8CBACC17AD7032D0820E3B41FAD9B7A48F1820F808E52ACDEC75F36404ECDA687
310
4D0629A6D5A76597B477D1B89855E747B38B2A041301E95B6E7A08FAD3CCAA50296647B8168BD2573599823EBB0CA76447F43862C7BCCF5EAC59410E4DDD9C7973C2755553CCCFA4C603E3040F1565ED3B1FDE4E432BCA0D9622DAF9795FAF464533826484B498524CD807E51D79ED187F21878E10516EF63F505AC67F42C9
310
BA58B1FDDD071640D2FCC87D2045B96591CB3DA85CB7DCE40F504B0304140006080800CC70623B55019EA25F0000007C00000007000000636E782E786D6C4DCB3B0E80201045D1AD90E915ED2CF8AC45050C11660C8261F98AB1B07AC9C97D42D718D865D3E909258CFD00CCE24AC6E326A164D74DC0B4128928FF32603847
310
2BA13128B1252AC747C6BAB984FC68F0B87FE8960A5C09FE86CFB69FBA01504B0304140006080800CC70623B8C9102E971010000D40300000C0000006662782F636F72652E786D6CC5535B6E833010BC8AE5DF0A6C08340F1947A84D4ED00B38C6A128602363A31CBFCB234A53A551FA553EC09AD9F5CE8C31DB9E9B1AF5CA
310
7695D1198E428A91D2D214952E33ECDD315861B4E5CC1AE3BE9561A445A3323CC098B3D21ADFCE9034DA29ED00D5A6503328BA4E398C640D8B0C77F253352214DE4145770A5B214FA2546114020D759C75CE8200340D19DE981F0F6746269C33EFAB6266AB02A655C74A59CCF365BADC27CB5D902ED22848F6340DF238A141
310
BE88E2F57B92BFEDF23523433367AE6A2EEAA455C2A902F398D2751045018D3FA264435F3771F242571B4A1919CA6F9A7C5B3CD9E42BED16F12C776AEB308F40C848FC700B1139D4891EF410CEC810227CC6846F8386402064270EF5C5C709A05E49676C024C61FC95EA45ED154CA5211D1FF4FB8291A913A68E9B83EBBB33
310
E2A7673CDE118E5AE8124C0807CB8377834E366998436B950D7A7746DAD846D4CFD978E0F04FD455FC5D49D2D4C6FE9722321F10997F0F32DC47FE05504B0304140006080800CC70623BFFEA85907E0000009D0000000B0000006662782F636E782E786D6C4DCCD10A83201886E15B91FFDC95D95A811AB6F23E625948A6C3
310
E9D8E5AF46073BFAE0E1E365ED67B3E8ADC3CB78C7815C7240DA3DFC64DCC221C519D7805AC182F7F1EF06C88D9BE6703008B6049F9E274D7A1E938DBB5AE3D6131B2589BA0D3D965551E0B2EA732C9B9A624AAEB41E3A557677029960D9AFB4EF11165F504B0304140006080800CC70623B4FEEA4082C0100001202000031
310
0000006662782F39464131463745442D413632322D343644302D413938332D3331353338454246344243312F636F72652E786D6C8D515B6EC32010BC0AE2AB55850DD871ED0813254D72825EC00192A2C460F1A872FC42ED48ED5F7E00CDCECCCEB26C731F6FE05B39AFADE921293004CA082BB5B9F43086336A21D870E6AC
310
0D7F68109861543DCC30E4ECE26C9C164858139409093556AA051CBC570102714B8F1E7AF1A5C6A11862480C7F2DA6415C878B2A4891CA89C7990F2E050073937C42DE1DB7E4F87ED8A36D4329AA9B3D46DBAEAD504556557BD81DEBDD0761E52CE42C462D17B996298E3E6BE59E35C962CE821E1FF18553435012728A7187
310
0841987E927A8D9B35ADDF70BBC6989599FE4F1427F9A4286A132ABAC49D651EF234CD5CE04CDA78BA3DC2A8FB645D00B9DF8B57E215725C60BCA2A463E54C4CE327C7A65E1C7DB02E7DEFCBF594B864C5CA6CDBD49C957943E9FA5D5FBAF336F90F504B0304140006080800CC70623BAD7543B64E01000033030000300000
310
006662782F39464131463745442D413632322D343644302D413938332D3331353338454246344243312F636E782E786D6CD593CD6EC32010845F0571AD6CE3D48AD20813A9873E410FBD12D82434182C7EAAE6EDBB2424CD25871E7B41D6EC30B3FA84F9E67BB2E40B4234DE8DB46F1925E094D7C6ED479AD3AE5951B2113C
310
789FEE6C943839C1488B4C05DF079FE72A69D8C96C13AAD6B8631503449F83828872B949AC57D26200B826A308D316B4064D6E46FCDA41C05550DC9E483A00797BFD207EFB092A45DE9514C1BBD22178396BD39D891265658C238DEA00936C654E5E433CB65A26D9F6EDB5EBC14EBF49A45CB856E66048291F6939A9A81BB5
310
C8917738143CA680F4AA299D66A042CEB3354A2684DC9D8D178FE0D9B8B41CAAD720F880EE7EF93C0C18769E099ECC04D5A102C8049A8A05632F4DDF376CF1DE0F6BB65C2F8627B65A33C6BB62177CEBBDAD973006829F89F22E814B54F4BC2BE347F8AA8F681390B50FA73F804400B5F542E796F19FF974E7F78DB802FE05
310
E207504B0304140006080800CC70623B16AB87BA640500003C100000340000006662782F39464131463745442D413632322D343644302D413938332D3331353338454246344243312F6F626A656374732E786D6CAD575B6FA33818FD2B887DE6924B3BED8A326A92B68A663B534DD4D13E548A0C38942D60649B369D5FBFC7
310
600890A493BDE42160637FD7F31D7FF63E6FB3D478A55C242CBF3247B66B1A340F5994E4F19559CA8D75611A9F7D8F33263BCB4C232719BD32D5B4E97B316765A1A722BA21652A07B3B7B33F0D11D29C9A46981221AE4C113ED38CD8A4942CA2E2C58E882476BCD9DA23BB5ED8171B73523C0F841684D35CC252CCE79062D4
310
468DFA43D7747CCF51DF7D4FFDEB5593E3AB9CCA9FBEFE241792E4E19EB28198C968BAB8199F5D5A67D3E9C49A9E8F47D6EC76B6B0469F26EEFC7C3EBFBCBEB98462213924694B38DD98FE1D62C393D073EA4FADC5DAF04326852CCF6958F90F0F2B9BB5C48816348F90C7840A68EB78EDF68723159BCEE7891A6B95DDE9D3
310
BCEAEEE8086A6C6F9E5D4B59F0175C10A7A0820BAA5055C7473B5AE3CFDD452D602CD5DF12616444529E90D448938013FE6EFA58AA96F85E4F8C42275708571E98FE6827AF6B2B4AE3D7D83D64E5A64C53054DD3AF90BD06FEA9149565C94FCA0F6B834DC85599E4F2423B24DF0B6AFA979E534DFA9E7A4CC6FA631D486393
310
921829879BF5D781A373557BCB85E97FB90DB62B558F8795179C15944B051F40AB495CF35451D26A4727654E6D8033BD98EF82F21D91FF8AF2DD9982BCF1643BDD4EB516C9492E368C67C88DED563FC36D5EACF66DFF057C3658BDBFA69DF9578B3DA735B64F18C7F20770A9D45CFCF7FCF563D6456A277DBEF78A02637CA2
310
43B90A490AEAB94F72244481D24819A6C0E59B606BFA4B3025981DBB48EAB701D97BF19C577CC77F2D1B6C55A9EF3C732474C0B727303F625995056C3B02963D9EAC146BE78EC5FCEC7FA999EBC5EACBAAE41B12D27B4D2C0BBA49F244E2ECDC81B76B502F113D8F5EE8FB1BE3111CDD4FC2AA9B844CAB1288B68AB90A7CDC
310
1C166AB0D3DC5310625FCC14E779BFD0709F8890A629C9292B1B2DED31A4B0DA928CEE135085754027E3018A397D4D5427D15BD1330B677DC8934285AC3DF45A9EB68FF8F2B8FC0A509AFEECFD0FF2DE25CC6047F7214B195F07EFEB9A094D800F7BFAE8FED187B78EA8A3A400F115961BCAD1215E47C966530AF0EE8128FE
310
58CEBB996A8964FFA529A046635D9353B0336A8F700DDF46271A024E70B0B37C9DE01847591E54DED53D54202AB947E4076556AC49C6CA5C9E1226B7F1A7B1BE15DEED62C41B91E1B3E9AFAAA735036547343A925075041DF0A9979E893B391F8FCFA6967B3EFB644DCF6E5CEBFAE272625DCC6FAF3FB93793C5F90CE1EF57
310
407342756B10D1C489E8953CD1617E5CEECAD6F4EF8914CE5D5D504E5C3F1F9736DA62CFC11E00BCDDB8CC8A9466349744C1F75EBDA4DF09BA8A9E8C7A7E9991989E20E5DBDD6A6003664ED8F7A04A8DBE0DF6EAD9B9AA858342E47399053949D2C146EDB85DE4B176BB0965FBAC19BD19AA918E27FA50C1D22402E144464C
310
59462568E704B6E71915404CB72B8FF4EDE184DDAF753F284990D2C6926782963815403548A70C657FDEF80D2D9CEAA2AE4C1C76F60BFE74219A06527D6582DF6412526107381E55E353090704D085B52408D0933C4ED159D79BDA71BB4BC506F4831350EB6F979CD22D69BF7AC49B91A2C0A9DDA3D5CA36AD20FC478E37E6
310
1844E2352865EBCB6EA275A652E3836BE04EFB400BF1A2556F515F1FBB35B2AB35BD889C744FFA1004B5544B121E57F70215746DD2F5E2C1412B602CBF19455AC6C8E5E9922C4E01E65215385004546899059180EAFCF7A707CE7017CD8CDB0410789AB32C63B91E5CEBBBACB17AC6CD347A022D5075FD106377347AAABA7E
310
7D11590744509B44E205134DC1290F06580320F78E537D3D73540E06CB970B431F185308AD40BBD794D6D77003C5A36E8EAA54BA64597CD8F83BD552A080A365F7FF06504B0304140006080000CC70623B000000000000000000000000350000006662782F39464131463745442D413632322D343644302D413938332D3331
310
353338454246344243312F76657274696365732E62696E504B0304140006080800CC70623BF270F1330600000004000000360000006662782F39464131463745442D413632322D343644302D413938332D3331353338454246344243312F747269616E676C65732E62696E636660600000504B0304140006080000CC70623B
310
000000000000000000000000370000006662782F39464131463745442D413632322D343644302D413938332D3331353338454246344243312F617474726962757465732E62696E504B0304140006080800CC70623B08DA0BD19000000041010000360000006662782F39464131463745442D413632322D343644302D413938
310
332D3331353338454246344243312F6469726563746F72792E786D6C858F410AC3201045AF22B36F53E9A60B35CBEEBAE80D244E44489C6234F4F835464A48035D0DF398FF9F8AF63D0E6CC63039F212F8F9020C7D47C6792B21C5FE7403D62A1188E2E60C98D7234A5830286103A55745067B9D86B8A3CF9C7F90C11DE607
310
FB144396D7B6A82D282E9A152AD114D5EF2CB866EEE831B8EEA07A7BB5A8D7D61A2BAAEB7FD5F70921FF497D00504B0304140006080800CC70623B0D6EF93BFE000000A00100003B0000006662782F39464131463745442D413632322D343644302D413938332D3331353338454246344243312F7265736F75726365732F63
310
6F72652E786D6C8D50596E833010BD0A9ADFCA60B334011947A8694ED00B586642AC041B79A97AFC9A40A5F6AF3F33A3B7689E1E3F7DCD8FEC139DD7D6F4C0720A191A65476DA61E62B892236427C19DB5E1970C322367EC618541F0C9D9B8EC90B226A009093576C41D94DE63804C3DD2D18357379C652E63480A7FCF17A9
310
EE72C29CE5894E3AC17D702940B63D59270887DE46A7D0F36263058F518FBB468FE9A7BE6A7420864373B8D4873369AA8691FA421B3294352543C5CAF65C0F6FEF43CB8BD52C78D0F34F46E550061C419494B6843142CB0F5677F4B52BEB177AEC28E5C52AFF638ACBF84F53D42654E51E77B379102C05791282176B5F693D
310
CB4C7BED567C03504B010214000A0000080000CC70623B3DEE336E79000000790000001B00000000000000000000000000000000006175746F6465736B2D64657369676E2D7061636B6167652E786D6C504B01021400140006080800CC70623BD486FD9CA0000000F40000001300000000000000000000000000B20000005B
310
436F6E74656E745F54797065735D2E786D6C504B01021400140006080800CC70623B1EC5D7A3EB0000007C010000080000000000000000000000000083010000636F72652E786D6C504B01021400140006080800CC70623B55019EA25F0000007C000000070000000000000000000000000094020000636E782E786D6C504B
310
01021400140006080800CC70623B8C9102E971010000D40300000C00000000000000000000000000180300006662782F636F72652E786D6C504B01021400140006080800CC70623BFFEA85907E0000009D0000000B00000000000000000000000000B30400006662782F636E782E786D6C504B01021400140006080800CC70
310
623B4FEEA4082C0100001202000031000000000000000000000000005A0500006662782F39464131463745442D413632322D343644302D413938332D3331353338454246344243312F636F72652E786D6C504B01021400140006080800CC70623BAD7543B64E010000330300003000000000000000000000000000D5060000
310
6662782F39464131463745442D413632322D343644302D413938332D3331353338454246344243312F636E782E786D6C504B01021400140006080800CC70623B16AB87BA640500003C1000003400000000000000000000000000710800006662782F39464131463745442D413632322D343644302D413938332D3331353338
310
454246344243312F6F626A656374732E786D6C504B01021400140006080000CC70623B0000000000000000000000003500000000000000000000000000270E00006662782F39464131463745442D413632322D343644302D413938332D3331353338454246344243312F76657274696365732E62696E504B01021400140006
310
080800CC70623BF270F133060000000400000036000000000000000000000000007A0E00006662782F39464131463745442D413632322D343644302D413938332D3331353338454246344243312F747269616E676C65732E62696E504B01021400140006080000CC70623B0000000000000000000000003700000000000000
310
000000000000D40E00006662782F39464131463745442D413632322D343644302D413938332D3331353338454246344243312F617474726962757465732E62696E504B01021400140006080800CC70623B08DA0BD190000000410100003600000000000000000000000000290F00006662782F39464131463745442D413632
310
322D343644302D413938332D3331353338454246344243312F6469726563746F72792E786D6C504B01021400140006080800CC70623B0D6EF93BFE000000A00100003B000000000000000000000000000D1000006662782F39464131463745442D413632322D343644302D413938332D3331353338454246344243312F7265
310
736F75726365732F636F72652E786D6C504B0506000000000E000E0080040000641100000000
  0
XRECORD
  5
1E9C
102
{ACAD_REACTORS
330
173
102
}
330
173
100
AcDbXrecord
280
     1
102
MATERIAL
148
0.0
149
0.0
149
0.0
 93
        0
 94
       63
282
     0
 72
     1
 77
     1
171
     1
175
     1
179
     1
273
     0
  0
XRECORD
  5
175
102
{ACAD_REACTORS
330
173
102
}
330
173
100
AcDbXrecord
280
     1
270
     1
271
     1
  0
XRECORD
  5
174
102
{ACAD_REACTORS
330
173
102
}
330
173
100
AcDbXrecord
280
     1
270
     1
271
     1
  0
XRECORD
  5
1FB
102
{ACAD_REACTORS
330
173
102
}
330
173
100
AcDbXrecord
280
     1
 70
     0
 90
1673772943
  1
ECE7A1D2-D628-4531-984C-D00F80459256
310
504B03040A0000080000CC70623B3DEE336E79000000790000001B0000006175746F6465736B2D64657369676E2D7061636B6167652E786D6C3C3F786D6C2076657273696F6E3D22312E302220656E636F64696E673D227574662D3822203F3E3C666F726D6174733E3C666F726D61743E687474703A2F2F736368656D612E
310
6175746F6465736B2E636F6D2F64657369676E2D7061636B6167652F323030393C2F666F726D61743E3C2F666F726D6174733E504B0304140006080800CC70623BD486FD9CA0000000F4000000130000005B436F6E74656E745F54797065735D2E786D6C7D8EC10E82300C865F65E91D8A1E8C310C0EEA1BF002731658846E
310
D98AC1B77784ABF1D8FE5FBFBF75BBCE937A534CCEB38643598122B6FEE978D0B0485F9C41B54DDD7D022595594E1A469170414C76A4D9A4D207E29CF43ECE46F218070CC6BECC4078ACAA135ACF422C856C0E68EA1BF5669944DDD7BCDE7B1F8E415D77AECB980613C2E4AC91FC167A2B244592486606FC29C8FD7F045B9A
310
EF7053A7E60B504B0304140006080800CC70623BD9DDAED0EC0000007C01000008000000636F72652E786D6C8D90416EC3201045AF82665B61836D9CD8C2444DD39CA01740405C94182C03558F5F9C3852BBEB6A467FFE9B197D7EF89E6EE8CB2CC17A37002D0820E394D7D68D03A478C17B4007C117EFE32F1B20272733C0
310
2A83E0E3E2D3BC49CABB685CCCAAF3DA6CA20CC14440EA969B0182FA34932C648AD911AEC52CD5558EA6A0CF2EC329598D1E47ACCEFBECC59A050463A7EA5833865FEBDD0E37353BE3EE8DBDE3F6786A48D375FBF6CC78B9C282473B3DEFABC5C86834888A900E538A49F5419B9EB47DD5BC907D4F082F57FB1F28CDFA9F50
310
B22ED6D5F6EE030B20687EE43E10BC5CB3C8E51E54AE6B6EE207504B0304140006080800CC70623B55019EA25F0000007C00000007000000636E782E786D6C4DCB3B0E80201045D1AD90E915ED2CF8AC45050C11660C8261F98AB1B07AC9C97D42D718D865D3E909258CFD00CCE24AC6E326A164D74DC0B4128928FF326038
310
472BA13128B1252AC747C6BAB984FC68F0B87FE8960A5C09FE86CFB69FBA01504B0304140006080800CC70623BA24EB22D72010000D40300000C0000006662782F636F72652E786D6CC5535B6E833010BC8AE5DF0A6C5E49888CA3A6694ED00B38E05014B091B1518EDFE511A5A9D228FD2A1F60CDEC7A67C6986DCE4D8D7A
310
69BA4AAB0C073EC548AA5C17952A33ECECD15B61B4E1CC686DBF9561A44423333CC098B3D268D7CE50AE9595CA02AA74216750749DB418E5352C32DCE59FB211BE70162ABA93DF8AFC244AE9073ED050C759670D0840D390E18DF9F1706664C23973AE2A66B62A605A75ACA4C13C4976E1364A12EF355A2EBD384AF65EFA96
310
BC7B8BED2EA6719AAE16FB8491A199335B351775B991C2CA02F390D2D40B028F861F41BCA68B7518BFD0D59A524686F29B26D7164F36B94AD9289CE54E6D1DE6010819891F6E21228B3AD1831EC219194284CF98F06DD01008846CC5A1BEF83801D4CBDC6A1303536877A57A513B0953A94FC707FDBE6064EA84A9E3E6E0FA
310
EE8CF0E9198F7784A316AA0413C2C2F2E0ECA0934D1AE6D05A69BCDE9E91D2A611F573361E38FC1375157F5752AE6B6DFE4B11990F88CCBF0719EE23FF02504B0304140006080800CC70623B408A7D3B7C0000009D0000000B0000006662782F636E782E786D6C4DCCD10A83201886E15B91FFDC552A92A0064DBC8F581632
310
D3703A76F9ABD1C18E3E78F878E5F0D9027ABBFCF2292AE86E2D20171F69F6715550CB827B40839639A5F2770314A7CD293819B45C73AAFB45B35BA61ACAA1C1C7E7855C58C15BC331339661262CC762340413D68D77DA5B42298546CBE6573AF60CEB2F504B0304140006080800CC70623B449FB9BD290100001202000031
310
0000006662782F36394639363044362D344446342D343946362D394244322D3234314243333846323333332F636F72652E786D6C8D515B6EC32010BC0AE22B55850D98B871848994463E412FE002495162B07854397EA176A4F62F3F2C9A9D991D587EB84F37F0AD7D30CEF6905418026DA553C65E7A98E219ED203808EE9D
310
8B7F6810D871D23D2C3014FCE25D9A57483A1BB58D19B54EE9151C43D0110279CB971E06F9A5A7B11A53CC8C70ADE6515EC78BAE4895DB992778883E0700CB907242D17643D7E2538BD869608875438BBAE38922CAC8F1BDD90DB4691A5E2F42C153326A951B95E398B3D1FE599322163C9AE9115F7A3D46ADA0A018778810
310
84E907617BDCEE297BC5BB3DC6BC2EF47FA234AB2745C9D8D8D035EE220B50105E2F0DC1954B9FB747187D9F9D8FA0CCDB042D5FA0C015C65B42DF78BD10F3F3B363CB56C7109DCFDFBBB97E662ED92EB62D13BC2E1BCAE5777DB9966D8A1F504B0304140006080800CC70623BAD7543B64E01000033030000300000006662
310
782F36394639363044362D344446342D343946362D394244322D3234314243333846323333332F636E782E786D6CD593CD6EC32010845F0571AD6CE3D48AD20813A9873E410FBD12D82434182C7EAAE6EDBB2424CD25871E7B41D6EC30B3FA84F9E67BB2E40B4234DE8DB46F1925E094D7C6ED479AD3AE5951B2113C789FEE
310
6C943839C1488B4C05DF079FE72A69D8C96C13AAD6B8631503449F83828872B949AC57D26200B826A308D316B4064D6E46FCDA41C05550DC9E483A00797BFD207EFB092A45DE9514C1BBD22178396BD39D891265658C238DEA00936C654E5E433CB65A26D9F6EDB5EBC14EBF49A45CB856E66048291F6939A9A81BB5C89177
310
38143CA680F4AA299D66A042CEB3354A2684DC9D8D178FE0D9B8B41CAAD720F880EE7EF93C0C18769E099ECC04D5A102C8049A8A05632F4DDF376CF1DE0F6BB65C2F8627B65A33C6BB62177CEBBDAD973006829F89F22E814B54F4BC2BE347F8AA8F681390B50FA73F804400B5F542E796F19FF974E7F78DB802FE05E20750
310
4B0304140006080800CC70623B8D05915C650500003B100000340000006662782F36394639363044362D344446342D343946362D394244322D3234314243333846323333332F6F626A656374732E786D6CAD575B6FA33814FE2B887D06429276DA1565D4266D158D3A339A6846FB502932E050B66023DB74D2FDF5FB190C01
310
9276B2973C046C8ECFF53B17071F77456EBD502133CEAE6CDF9DD81665314F32965ED995DA3A17B6F5310C04E7AA47665B8C14F4CAD6DB7618A48257A5D94AE89654B91AEDDEDDFC61C998326A5B714EA4BCB265FC440BE2924AF184CA6737218AB8E976E7FA6E4338649B0A523E8D98964450A6A029F619B8588D52FE7039
310
B1BD30F0F4F730D0FF866AF6369557DB33949F31A9088B0F848DD8CCFCF9F2767A76E99CCDE733677E3EF59D9BBB9BA5E37F984D16E78BC5E5F5ED25044B25C0C96822E8D60EEFE11B91C581D77CEA34368A1F5329E68CD1B8B61F16D63A1B8E092D294B10C78C4A48EB593D192E7DED9BDEE7995E1B91FDEDD3ACEA9FE831
310
6A756F9F7D4D79F4274C90A7A04248AA51D5F8C718DAE06FB2F75AC4796EBE65D22A88A22223B995679120E2D50E41AA49C260C046A35368846B0BECD0DFF3EBEB8AD4F835768F69B9ADF25C43D30E6B646F807FAA64AD59F61715C7A54127C4AACA98BA3006A9D792DAE165E0D59B61A01FB3A9F9D838D2DAE62445C86166
310
F37564E842E7DE6A69879FEEA2DD5AE7E371E1A5E025154AC307D06A03D73EB5978C58FFA4C8E9033066E0F3BD53BEC1F39F91BE7B55103791EDE6BBB991A2046172CB4581D8B893FA674DDA17A77B3B7C413D1B511FD2743BFF8A38F03A658705E3ADF8015C3A3417FF3D7E439FF591DA0B5F18BC20C1B8981957AE6392A3
310
F43C640C01D1A0B4728E2DD4F26DB4B3C3152A252A3B4E913CEC1C72F012782FF88EFF8637AA552DBEF76408E8A8DE9E50F9E1CB3A2DA0DB1B6039A893B56063DC5B3E3FFB5F72E67AB9FEB4AEC496C4F4C1149625DD662C53E89D7BF0F6151A046260D1337DFDC94502430F83B0EE07A130A224BCAD7DAE1D9FB6CD422FF6
310
920702629C4BB9AE79C12F243C6432A6794E18E5552BA56B431AAB5D91317302B2B071E86C3A42B1A02F999E24061403B5D0EB639195DA655DD3EBEAB4FB862DDF579F014AD0E73C22F99E28DA57FB98E75C6CA2D74D53086D600F4786E0FE3144B771A8A7B900F03594DB8A633CBC49B2EDB69228BB479CF863B5E807AAAB
310
23872F6DFEB4129B949CA33823F58830E86D65621E10047D9DB34D862E8EAC3C2ABC2F7B2C40D67CDFE01F5545B92105AF983AC54D93D69E56FB8E797F88913F898A9FEC705D3F9D1B54EC8426FB500D40A03BD0119B06E1B95DDC7EB8F6975367793EBD70E66733DFB9BC982F9CE564727731999F5D4ECFCE3B8D6A4DC2A0
310
6D50FD148437D110834A64C6CDDF57FBACB5C307A2A477DFE4939736CFEF2B175371E0E10CF0DD1D5C15654E0BCA14D1E87DD02FF93782A162C0A3D95F1524A52770F972BF1EE9809D13CE7DD599467F8ECE9ADD85CE85A34CD45355448C64F9E8A031DC2D596ACC6E5DD93D9B82DE2EF5CAF81363A8E47996A0DE24564A79
310
4115AACE09C55E14540231FDA13C319787134EBF34E3A022514E5B4D9E0826E25C02D5805B15ABE1BEF51B26383D445DD9E875EE33FE4C22DA16427D65A3BCA92CA6D28DD01DF5DC53330704308475351050232CCD31583787BA75774AFB06E5070DD0C8EF484E19968C5D83BA5B90B244D31E54D55A372320FE4786B7EA58
310
44E135AA5467CB7EA333A61683CC6A8C3257034C10CF46F40EF9F5BE59BE5BD30C3C72D235E95D10345C1D45445A5F0BB47E46A5EBE5570F9380B5FA629579952296A773720405982B9DE04011506178964401AA8BDF1FBF0A8EAB6861DD6580C0E38217056766716DAEB2D6FA0917D3E4116581EADB879C4E7CFFB11EFACD
310
3D641311495D92C8676CB409A72D18610D803CE8A626049E8EC1887CB5B44CC39883690DDA8399B4B9855B481E7D71D4A9D22F96E5BB73BF5793020C02137BF837504B0304140006080000CC70623B000000000000000000000000350000006662782F36394639363044362D344446342D343946362D394244322D32343142
310
43333846323333332F76657274696365732E62696E504B0304140006080800CC70623BF270F1330600000004000000360000006662782F36394639363044362D344446342D343946362D394244322D3234314243333846323333332F747269616E676C65732E62696E636660600000504B0304140006080000CC70623B0000
310
00000000000000000000370000006662782F36394639363044362D344446342D343946362D394244322D3234314243333846323333332F617474726962757465732E62696E504B0304140006080800CC70623B08DA0BD19000000041010000360000006662782F36394639363044362D344446342D343946362D394244322D
310
3234314243333846323333332F6469726563746F72792E786D6C858F410AC3201045AF22B36F53E9A60B35CBEEBAE80D244E44489C6234F4F835464A48035D0DF398FF9F8AF63D0E6CC63039F212F8F9020C7D47C6792B21C5FE7403D62A1188E2E60C98D7234A5830286103A55745067B9D86B8A3CF9C7F90C11DE607FB14
310
4396D7B6A82D282E9A152AD114D5EF2CB866EEE831B8EEA07A7BB5A8D7D61A2BAAEB7FD5F70921FF497D00504B0304140006080800CC70623BCA768048FE000000A00100003B0000006662782F36394639363044362D344446342D343946362D394244322D3234314243333846323333332F7265736F75726365732F636F72
310
652E786D6C8D50596E833010BD0A9ADFCA60D600328E9AA639412F609909B1126CE4A5EAF16B0295DABFFECC8CDEA2797AECF8353F924FB44E193D409E5248504B332A3D0D10FC95B4901C39B3C6F85F3248B49871801506CE266BC2B243D2688FDA47549B11775038871E12F988C7004EDE7016A9083E2ADC3D5D84BC8B09
310
D33C8D74D471E6BC8D0192EDC93A815B742658898E651BCB59086ADC356A8C3FD555A1055ED7E7E254D615792D0F075295F585746FF53B694EE78A565DD736979A65AB9933AFE69F8CD2A2F038022F28ED489E135A7CE4554F9BBEA85E68DB53CAB255FEC71496F19FA6A0B42F8B3DEE6673C0F318E4497096AD7DC5F52C33
310
EEB55BFE0D504B010214000A0000080000CC70623B3DEE336E79000000790000001B00000000000000000000000000000000006175746F6465736B2D64657369676E2D7061636B6167652E786D6C504B01021400140006080800CC70623BD486FD9CA0000000F40000001300000000000000000000000000B20000005B436F
310
6E74656E745F54797065735D2E786D6C504B01021400140006080800CC70623BD9DDAED0EC0000007C010000080000000000000000000000000083010000636F72652E786D6C504B01021400140006080800CC70623B55019EA25F0000007C000000070000000000000000000000000095020000636E782E786D6C504B0102
310
1400140006080800CC70623BA24EB22D72010000D40300000C00000000000000000000000000190300006662782F636F72652E786D6C504B01021400140006080800CC70623B408A7D3B7C0000009D0000000B00000000000000000000000000B50400006662782F636E782E786D6C504B01021400140006080800CC70623B
310
449FB9BD290100001202000031000000000000000000000000005A0500006662782F36394639363044362D344446342D343946362D394244322D3234314243333846323333332F636F72652E786D6C504B01021400140006080800CC70623BAD7543B64E010000330300003000000000000000000000000000D20600006662
310
782F36394639363044362D344446342D343946362D394244322D3234314243333846323333332F636E782E786D6C504B01021400140006080800CC70623B8D05915C650500003B10000034000000000000000000000000006E0800006662782F36394639363044362D344446342D343946362D394244322D32343142433338
310
46323333332F6F626A656374732E786D6C504B01021400140006080000CC70623B0000000000000000000000003500000000000000000000000000250E00006662782F36394639363044362D344446342D343946362D394244322D3234314243333846323333332F76657274696365732E62696E504B010214001400060808
310
00CC70623BF270F13306000000040000003600000000000000000000000000780E00006662782F36394639363044362D344446342D343946362D394244322D3234314243333846323333332F747269616E676C65732E62696E504B01021400140006080000CC70623B00000000000000000000000037000000000000000000
310
00000000D20E00006662782F36394639363044362D344446342D343946362D394244322D3234314243333846323333332F617474726962757465732E62696E504B01021400140006080800CC70623B08DA0BD190000000410100003600000000000000000000000000270F00006662782F36394639363044362D344446342D
310
343946362D394244322D3234314243333846323333332F6469726563746F72792E786D6C504B01021400140006080800CC70623BCA768048FE000000A00100003B000000000000000000000000000B1000006662782F36394639363044362D344446342D343946362D394244322D3234314243333846323333332F7265736F
310
75726365732F636F72652E786D6C504B0506000000000E000E0080040000621100000000
  0
XRECORD
  5
176
102
{ACAD_REACTORS
330
173
102
}
330
173
100
AcDbXrecord
280
     1
270
     1
271
     1
  0
XRECORD
  5
177
102
{ACAD_REACTORS
330
173
102
}
330
173
100
AcDbXrecord
280
     1
270
     1
271
     1
  0
XRECORD
  5
1EBE
102
{ACAD_REACTORS
330
1EBD
102
}
330
1EBD
100
AcDbXrecord
280
     1
102
ACAD_ROUNDTRIP_2012_MLEADER_STYLE
298
     1
  0
XRECORD
  5
1ED0
102
{ACAD_REACTORS
330
1ECF
102
}
330
1ECF
100
AcDbXrecord
280
     1
102
DISPLAYNAME
  1
Metric50
102
FLAGS
 90
        0
  0
CELLSTYLEMAP
  5
1E90
102
{ACAD_REACTORS
330
162
102
}
330
162
100
AcDbCellStyleMap
 90
        3
300
CELLSTYLE
  1
TABLEFORMAT_BEGIN
 90
        5
170
     1
 91
        0
 92
    32768
 62
   257
 93
        1
300
CONTENTFORMAT
  1
CONTENTFORMAT_BEGIN
 90
        0
 91
        0
 92
      512
 93
        0
300

 40
0.0
140
1.0
 94
        5
 62
     0
340
11
144
6.0
309
CONTENTFORMAT_END
171
     1
301
MARGIN
  1
CELLMARGIN_BEGIN
 40
1.5
 40
1.5
 40
1.5
 40
1.5
 40
4.5
 40
4.5
309
CELLMARGIN_END
 94
        6
 95
        1
302
GRIDFORMAT
  1
GRIDFORMAT_BEGIN
 90
        0
 91
        1
 62
     0
 92
       -2
340
14
 93
        0
 40
1.125
309
GRIDFORMAT_END
 95
        2
302
GRIDFORMAT
  1
GRIDFORMAT_BEGIN
 90
        0
 91
        1
 62
     0
 92
       -2
340
14
 93
        0
 40
1.125
309
GRIDFORMAT_END
 95
        4
302
GRIDFORMAT
  1
GRIDFORMAT_BEGIN
 90
        0
 91
        1
 62
     0
 92
       -2
340
14
 93
        0
 40
1.125
309
GRIDFORMAT_END
 95
        8
302
GRIDFORMAT
  1
GRIDFORMAT_BEGIN
 90
        0
 91
        1
 62
     0
 92
       -2
340
14
 93
        0
 40
1.125
309
GRIDFORMAT_END
 95
       16
302
GRIDFORMAT
  1
GRIDFORMAT_BEGIN
 90
        0
 91
        1
 62
     0
 92
       -2
340
14
 93
        0
 40
1.125
309
GRIDFORMAT_END
 95
       32
302
GRIDFORMAT
  1
GRIDFORMAT_BEGIN
 90
        0
 91
        1
 62
     0
 92
       -2
340
14
 93
        0
 40
1.125
309
GRIDFORMAT_END
309
TABLEFORMAT_END
  1
CELLSTYLE_BEGIN
 90
        1
 91
        1
300
_TITLE
309
CELLSTYLE_END
300
CELLSTYLE
  1
TABLEFORMAT_BEGIN
 90
        5
170
     1
 91
        0
 92
        0
 62
   257
 93
        1
300
CONTENTFORMAT
  1
CONTENTFORMAT_BEGIN
 90
        0
 91
        0
 92
      512
 93
        0
300

 40
0.0
140
1.0
 94
        5
 62
     0
340
11
144
4.5
309
CONTENTFORMAT_END
171
     1
301
MARGIN
  1
CELLMARGIN_BEGIN
 40
1.5
 40
1.5
 40
1.5
 40
1.5
 40
4.5
 40
4.5
309
CELLMARGIN_END
 94
        6
 95
        1
302
GRIDFORMAT
  1
GRIDFORMAT_BEGIN
 90
        0
 91
        1
 62
     0
 92
       -2
340
14
 93
        0
 40
1.125
309
GRIDFORMAT_END
 95
        2
302
GRIDFORMAT
  1
GRIDFORMAT_BEGIN
 90
        0
 91
        1
 62
     0
 92
       -2
340
14
 93
        0
 40
1.125
309
GRIDFORMAT_END
 95
        4
302
GRIDFORMAT
  1
GRIDFORMAT_BEGIN
 90
        0
 91
        1
 62
     0
 92
       -2
340
14
 93
        0
 40
1.125
309
GRIDFORMAT_END
 95
        8
302
GRIDFORMAT
  1
GRIDFORMAT_BEGIN
 90
        0
 91
        1
 62
     0
 92
       -2
340
14
 93
        0
 40
1.125
309
GRIDFORMAT_END
 95
       16
302
GRIDFORMAT
  1
GRIDFORMAT_BEGIN
 90
        0
 91
        1
 62
     0
 92
       -2
340
14
 93
        0
 40
1.125
309
GRIDFORMAT_END
 95
       32
302
GRIDFORMAT
  1
GRIDFORMAT_BEGIN
 90
        0
 91
        1
 62
     0
 92
       -2
340
14
 93
        0
 40
1.125
309
GRIDFORMAT_END
309
TABLEFORMAT_END
  1
CELLSTYLE_BEGIN
 90
        2
 91
        1
300
_HEADER
309
CELLSTYLE_END
300
CELLSTYLE
  1
TABLEFORMAT_BEGIN
 90
        5
170
     1
 91
        0
 92
        0
 62
   257
 93
        1
300
CONTENTFORMAT
  1
CONTENTFORMAT_BEGIN
 90
        0
 91
        0
 92
      512
 93
        0
300

 40
0.0
140
1.0
 94
        2
 62
     0
340
11
144
4.5
309
CONTENTFORMAT_END
171
     1
301
MARGIN
  1
CELLMARGIN_BEGIN
 40
1.5
 40
1.5
 40
1.5
 40
1.5
 40
4.5
 40
4.5
309
CELLMARGIN_END
 94
        6
 95
        1
302
GRIDFORMAT
  1
GRIDFORMAT_BEGIN
 90
        0
 91
        1
 62
     0
 92
       -2
340
14
 93
        0
 40
1.125
309
GRIDFORMAT_END
 95
        2
302
GRIDFORMAT
  1
GRIDFORMAT_BEGIN
 90
        0
 91
        1
 62
     0
 92
       -2
340
14
 93
        0
 40
1.125
309
GRIDFORMAT_END
 95
        4
302
GRIDFORMAT
  1
GRIDFORMAT_BEGIN
 90
        0
 91
        1
 62
     0
 92
       -2
340
14
 93
        0
 40
1.125
309
GRIDFORMAT_END
 95
        8
302
GRIDFORMAT
  1
GRIDFORMAT_BEGIN
 90
        0
 91
        1
 62
     0
 92
       -2
340
14
 93
        0
 40
1.125
309
GRIDFORMAT_END
 95
       16
302
GRIDFORMAT
  1
GRIDFORMAT_BEGIN
 90
        0
 91
        1
 62
     0
 92
       -2
340
14
 93
        0
 40
1.125
309
GRIDFORMAT_END
 95
       32
302
GRIDFORMAT
  1
GRIDFORMAT_BEGIN
 90
        0
 91
        1
 62
     0
 92
       -2
340
14
 93
        0
 40
1.125
309
GRIDFORMAT_END
309
TABLEFORMAT_END
  1
CELLSTYLE_BEGIN
 90
        3
 91
        2
300
_DATA
309
CELLSTYLE_END
  0
XRECORD
  5
1E95
102
{ACAD_REACTORS
330
162
102
}
330
162
100
AcDbXrecord
280
     1
102
ACAD_ROUNDTRIP_PRE2007_TABLESTYLE
 90
      512
 91
        0
  1

 92
      512
 93
        0
  2

 94
      512
 95
        0
  3

  0
XRECORD
  5
1EA8
102
{ACAD_REACTORS
330
1EA7
102
}
330
1EA7
100
AcDbXrecord
280
     1
102
RTVSPost2010Prop28
280
     1
102
RTVSPost2010PropOp28
 70
     1
102
RTVSPost2010Prop29
280
     1
102
RTVSPost2010PropOp29
 70
     1
102
RTVSPost2010Prop30
280
     0
102
RTVSPost2010PropOp30
 70
     1
102
RTVSPost2010Prop31
280
     0
102
RTVSPost2010PropOp31
 70
     1
102
RTVSPost2010Prop32
280
     0
102
RTVSPost2010PropOp32
 70
     1
102
RTVSPost2010Prop33
280
     0
102
RTVSPost2010PropOp33
 70
     1
102
RTVSPost2010Prop34
280
     0
102
RTVSPost2010PropOp34
 70
     1
102
RTVSPost2010Prop35
280
     0
102
RTVSPost2010PropOp35
 70
     1
102
RTVSPost2010Prop36
280
     0
102
RTVSPost2010PropOp36
 70
     1
102
RTVSPost2010Prop37
 90
       50
102
RTVSPost2010PropOp37
 70
     1
102
RTVSPost2010Prop38
140
0.0
102
RTVSPost2010PropOp38
 70
     1
102
RTVSPost2010Prop39
140
1.0
102
RTVSPost2010PropOp39
 70
     1
102
RTVSPost2010Prop40
 90
        0
102
RTVSPost2010PropOp40
 70
     1
102
RTVSPost2010Prop41ColorIndex
 90
       18
102
RTVSPost2010Prop41ColorRGB
 90
        0
102
RTVSPost2010PropOp41
 70
     1
102
RTVSPost2010Prop42
 90
       50
102
RTVSPost2010PropOp42
 70
     1
102
RTVSPost2010Prop43
 90
        3
102
RTVSPost2010PropOp43
 70
     1
102
RTVSPost2010Prop44ColorIndex
 90
        5
102
RTVSPost2010Prop44ColorRGB
 90
      255
102
RTVSPost2010PropOp44
 70
     1
102
RTVSPost2010Prop45
280
     0
102
RTVSPost2010PropOp45
 70
     1
102
RTVSPost2010Prop46
 90
       50
102
RTVSPost2010PropOp46
 70
     1
102
RTVSPost2010Prop47
 90
       50
102
RTVSPost2010PropOp47
 70
     1
102
RTVSPost2010Prop48
 90
       50
102
RTVSPost2010PropOp48
 70
     1
102
RTVSPost2010Prop49
280
     0
102
RTVSPost2010PropOp49
 70
     1
102
RTVSPost2010Prop50
 90
       50
102
RTVSPost2010PropOp50
 70
     1
102
RTVSPost2010Prop51ColorIndex
 90
      256
102
RTVSPost2010Prop51ColorRGB
 90
-16777216
102
RTVSPost2010PropOp51
 70
     0
102
RTVSPost2010Prop52
140
1.0
102
RTVSPost2010PropOp52
 70
     0
102
RTVSPost2010Prop53
 90
        2
102
RTVSPost2010PropOp53
 70
     1
102
RTVSPost2010Prop54
  1
strokes_ogs.tif
102
RTVSPost2010PropOp54
 70
     1
102
RTVSPost2010Prop55
280
     0
102
RTVSPost2010PropOp55
 70
     1
102
RTVSPost2010Prop56
140
1.0
102
RTVSPost2010PropOp56
 70
     1
102
RTVSPost2010Prop57
140
1.0
102
RTVSPost2010PropOp57
 70
     1
102
RTVSPropertyOp0
 70
     1
102
RTVSPropertyOp1
 70
     1
102
RTVSPropertyOp2
 70
     1
102
RTVSPropertyOp3
 70
     1
102
RTVSPropertyOp4
 70
     1
102
RTVSPropertyOp5
 70
     1
102
RTVSPropertyOp6
 70
     1
102
RTVSPropertyOp7
 70
     1
102
RTVSPropertyOp8
 70
     1
102
RTVSPropertyOp9
 70
     1
102
RTVSPropertyOp10
 70
     1
102
RTVSPropertyOp11
 70
     1
102
RTVSPropertyOp12
 70
     1
102
RTVSPropertyOp13
 70
     1
102
RTVSPropertyOp14
 70
     1
102
RTVSPropertyOp15
 70
     1
102
RTVSPropertyOp16
 70
     1
102
RTVSPropertyOp17
 70
     1
102
RTVSPropertyOp18
 70
     1
102
RTVSPropertyOp19
 70
     1
102
RTVSPropertyOp20
 70
     1
102
RTVSPropertyOp21
 70
     1
102
RTVSPropertyOp22
 70
     1
102
RTVSPropertyOp23
 70
     1
102
RTVSPropertyOp24
 70
     1
102
RTVSPropertyOp25
 70
     1
102
RTVSPropertyOp26
 70
     1
102
RTVSPropertyOp27
 70
     1
102
RTVSPropertyOp28
 70
     1
102
RTVSPropertyOp29
 70
     1
102
RTVSPropertyOp30
 70
     1
102
RTVSPropertyOp31
 70
     1
102
RTVSPropertyOp32
 70
     1
102
RTVSPropertyOp33
 70
     1
102
RTVSPropertyOp34
 70
     1
102
RTVSPropertyOp35
 70
     1
102
RTVSPropertyOp36
 70
     1
102
RTVSPropertyOp37
 70
     1
102
RTVSPropertyOp38
 70
     1
102
RTVSPropertyOp39
 70
     1
102
RTVSPropertyOp40
 70
     1
102
RTVSPropertyOp41
 70
     1
102
RTVSPropertyOp42
 70
     1
102
RTVSPropertyOp43
 70
     1
102
RTVSPropertyOp44
 70
     1
102
RTVSPropertyOp45
 70
     1
102
RTVSPropertyOp46
 70
     1
102
RTVSPropertyOp47
 70
     1
102
RTVSPropertyOp48
 70
     1
102
RTVSPropertyOp49
 70
     1
102
RTVSPropertyOp50
 70
     1
102
RTVSPropertyOp51
 70
     0
102
RTVSPropertyOp52
 70
     0
102
RTVSPropertyOp53
 70
     1
102
RTVSPropertyOp54
 70
     1
102
RTVSPropertyOp55
 70
     1
102
RTVSPropertyOp56
 70
     1
102
RTVSPropertyOp57
 70
     1
102
RTVSPropertyOp58
 70
     1
102
RTVSPropertyOp59
 70
     1
102
RTVSPropertyOp60
 70
     1
102
RTVSPropertyOp61
 70
     1
102
RTVSPropertyOp62
 70
     1
  0
XRECORD
  5
1EA6
102
{ACAD_REACTORS
330
1EA5
102
}
330
1EA5
100
AcDbXrecord
280
     1
102
RTVSPost2010Prop28
280
     0
102
RTVSPost2010PropOp28
 70
     1
102
RTVSPost2010Prop29
280
     1
102
RTVSPost2010PropOp29
 70
     1
102
RTVSPost2010Prop30
280
     1
102
RTVSPost2010PropOp30
 70
     1
102
RTVSPost2010Prop31
280
     0
102
RTVSPost2010PropOp31
 70
     1
102
RTVSPost2010Prop32
280
     0
102
RTVSPost2010PropOp32
 70
     1
102
RTVSPost2010Prop33
280
     0
102
RTVSPost2010PropOp33
 70
     1
102
RTVSPost2010Prop34
280
     0
102
RTVSPost2010PropOp34
 70
     1
102
RTVSPost2010Prop35
280
     0
102
RTVSPost2010PropOp35
 70
     1
102
RTVSPost2010Prop36
280
     0
102
RTVSPost2010PropOp36
 70
     1
102
RTVSPost2010Prop37
 90
       50
102
RTVSPost2010PropOp37
 70
     1
102
RTVSPost2010Prop38
140
0.0
102
RTVSPost2010PropOp38
 70
     1
102
RTVSPost2010Prop39
140
1.0
102
RTVSPost2010PropOp39
 70
     1
102
RTVSPost2010Prop40
 90
        0
102
RTVSPost2010PropOp40
 70
     1
102
RTVSPost2010Prop41ColorIndex
 90
       18
102
RTVSPost2010Prop41ColorRGB
 90
        0
102
RTVSPost2010PropOp41
 70
     1
102
RTVSPost2010Prop42
 90
       50
102
RTVSPost2010PropOp42
 70
     1
102
RTVSPost2010Prop43
 90
        3
102
RTVSPost2010PropOp43
 70
     1
102
RTVSPost2010Prop44ColorIndex
 90
        5
102
RTVSPost2010Prop44ColorRGB
 90
      255
102
RTVSPost2010PropOp44
 70
     1
102
RTVSPost2010Prop45
280
     0
102
RTVSPost2010PropOp45
 70
     1
102
RTVSPost2010Prop46
 90
       50
102
RTVSPost2010PropOp46
 70
     1
102
RTVSPost2010Prop47
 90
       50
102
RTVSPost2010PropOp47
 70
     1
102
RTVSPost2010Prop48
 90
       50
102
RTVSPost2010PropOp48
 70
     1
102
RTVSPost2010Prop49
280
     0
102
RTVSPost2010PropOp49
 70
     1
102
RTVSPost2010Prop50
 90
       50
102
RTVSPost2010PropOp50
 70
     1
102
RTVSPost2010Prop51ColorIndex
 90
      256
102
RTVSPost2010Prop51ColorRGB
 90
-16777216
102
RTVSPost2010PropOp51
 70
     0
102
RTVSPost2010Prop52
140
1.0
102
RTVSPost2010PropOp52
 70
     0
102
RTVSPost2010Prop53
 90
        2
102
RTVSPost2010PropOp53
 70
     1
102
RTVSPost2010Prop54
  1
strokes_ogs.tif
102
RTVSPost2010PropOp54
 70
     1
102
RTVSPost2010Prop55
280
     0
102
RTVSPost2010PropOp55
 70
     1
102
RTVSPost2010Prop56
140
1.0
102
RTVSPost2010PropOp56
 70
     1
102
RTVSPost2010Prop57
140
1.0
102
RTVSPost2010PropOp57
 70
     1
102
RTVSPropertyOp0
 70
     1
102
RTVSPropertyOp1
 70
     1
102
RTVSPropertyOp2
 70
     1
102
RTVSPropertyOp3
 70
     1
102
RTVSPropertyOp4
 70
     1
102
RTVSPropertyOp5
 70
     1
102
RTVSPropertyOp6
 70
     1
102
RTVSPropertyOp7
 70
     1
102
RTVSPropertyOp8
 70
     1
102
RTVSPropertyOp9
 70
     1
102
RTVSPropertyOp10
 70
     1
102
RTVSPropertyOp11
 70
     1
102
RTVSPropertyOp12
 70
     1
102
RTVSPropertyOp13
 70
     1
102
RTVSPropertyOp14
 70
     1
102
RTVSPropertyOp15
 70
     1
102
RTVSPropertyOp16
 70
     1
102
RTVSPropertyOp17
 70
     1
102
RTVSPropertyOp18
 70
     1
102
RTVSPropertyOp19
 70
     1
102
RTVSPropertyOp20
 70
     1
102
RTVSPropertyOp21
 70
     1
102
RTVSPropertyOp22
 70
     1
102
RTVSPropertyOp23
 70
     1
102
RTVSPropertyOp24
 70
     1
102
RTVSPropertyOp25
 70
     1
102
RTVSPropertyOp26
 70
     1
102
RTVSPropertyOp27
 70
     1
102
RTVSPropertyOp28
 70
     1
102
RTVSPropertyOp29
 70
     1
102
RTVSPropertyOp30
 70
     1
102
RTVSPropertyOp31
 70
     1
102
RTVSPropertyOp32
 70
     1
102
RTVSPropertyOp33
 70
     1
102
RTVSPropertyOp34
 70
     1
102
RTVSPropertyOp35
 70
     1
102
RTVSPropertyOp36
 70
     1
102
RTVSPropertyOp37
 70
     1
102
RTVSPropertyOp38
 70
     1
102
RTVSPropertyOp39
 70
     1
102
RTVSPropertyOp40
 70
     1
102
RTVSPropertyOp41
 70
     1
102
RTVSPropertyOp42
 70
     1
102
RTVSPropertyOp43
 70
     1
102
RTVSPropertyOp44
 70
     1
102
RTVSPropertyOp45
 70
     1
102
RTVSPropertyOp46
 70
     1
102
RTVSPropertyOp47
 70
     1
102
RTVSPropertyOp48
 70
     1
102
RTVSPropertyOp49
 70
     1
102
RTVSPropertyOp50
 70
     1
102
RTVSPropertyOp51
 70
     0
102
RTVSPropertyOp52
 70
     0
102
RTVSPropertyOp53
 70
     1
102
RTVSPropertyOp54
 70
     1
102
RTVSPropertyOp55
 70
     1
102
RTVSPropertyOp56
 70
     1
102
RTVSPropertyOp57
 70
     1
102
RTVSPropertyOp58
 70
     1
102
RTVSPropertyOp59
 70
     1
102
RTVSPropertyOp60
 70
     1
102
RTVSPropertyOp61
 70
     1
102
RTVSPropertyOp62
 70
     1
  0
XRECORD
  5
1EB4
102
{ACAD_REACTORS
330
1EB3
102
}
330
1EB3
100
AcDbXrecord
280
     1
102
RTVSPost2010Prop28
280
     0
102
RTVSPost2010PropOp28
 70
     1
102
RTVSPost2010Prop29
280
     1
102
RTVSPost2010PropOp29
 70
     1
102
RTVSPost2010Prop30
280
     1
102
RTVSPost2010PropOp30
 70
     1
102
RTVSPost2010Prop31
280
     0
102
RTVSPost2010PropOp31
 70
     1
102
RTVSPost2010Prop32
280
     0
102
RTVSPost2010PropOp32
 70
     1
102
RTVSPost2010Prop33
280
     0
102
RTVSPost2010PropOp33
 70
     1
102
RTVSPost2010Prop34
280
     0
102
RTVSPost2010PropOp34
 70
     1
102
RTVSPost2010Prop35
280
     0
102
RTVSPost2010PropOp35
 70
     1
102
RTVSPost2010Prop36
280
     0
102
RTVSPost2010PropOp36
 70
     1
102
RTVSPost2010Prop37
 90
       50
102
RTVSPost2010PropOp37
 70
     1
102
RTVSPost2010Prop38
140
0.0
102
RTVSPost2010PropOp38
 70
     1
102
RTVSPost2010Prop39
140
1.0
102
RTVSPost2010PropOp39
 70
     1
102
RTVSPost2010Prop40
 90
        0
102
RTVSPost2010PropOp40
 70
     1
102
RTVSPost2010Prop41ColorIndex
 90
       18
102
RTVSPost2010Prop41ColorRGB
 90
        0
102
RTVSPost2010PropOp41
 70
     1
102
RTVSPost2010Prop42
 90
       50
102
RTVSPost2010PropOp42
 70
     1
102
RTVSPost2010Prop43
 90
        3
102
RTVSPost2010PropOp43
 70
     1
102
RTVSPost2010Prop44ColorIndex
 90
        5
102
RTVSPost2010Prop44ColorRGB
 90
      255
102
RTVSPost2010PropOp44
 70
     1
102
RTVSPost2010Prop45
280
     0
102
RTVSPost2010PropOp45
 70
     1
102
RTVSPost2010Prop46
 90
       50
102
RTVSPost2010PropOp46
 70
     1
102
RTVSPost2010Prop47
 90
       50
102
RTVSPost2010PropOp47
 70
     1
102
RTVSPost2010Prop48
 90
       50
102
RTVSPost2010PropOp48
 70
     1
102
RTVSPost2010Prop49
280
     0
102
RTVSPost2010PropOp49
 70
     1
102
RTVSPost2010Prop50
 90
       50
102
RTVSPost2010PropOp50
 70
     1
102
RTVSPost2010Prop51ColorIndex
 90
      256
102
RTVSPost2010Prop51ColorRGB
 90
-16777216
102
RTVSPost2010PropOp51
 70
     0
102
RTVSPost2010Prop52
140
1.0
102
RTVSPost2010PropOp52
 70
     0
102
RTVSPost2010Prop53
 90
        2
102
RTVSPost2010PropOp53
 70
     1
102
RTVSPost2010Prop54
  1
strokes_ogs.tif
102
RTVSPost2010PropOp54
 70
     1
102
RTVSPost2010Prop55
280
     0
102
RTVSPost2010PropOp55
 70
     1
102
RTVSPost2010Prop56
140
1.0
102
RTVSPost2010PropOp56
 70
     1
102
RTVSPost2010Prop57
140
1.0
102
RTVSPost2010PropOp57
 70
     1
102
RTVSPropertyOp0
 70
     1
102
RTVSPropertyOp1
 70
     1
102
RTVSPropertyOp2
 70
     1
102
RTVSPropertyOp3
 70
     1
102
RTVSPropertyOp4
 70
     1
102
RTVSPropertyOp5
 70
     1
102
RTVSPropertyOp6
 70
     1
102
RTVSPropertyOp7
 70
     1
102
RTVSPropertyOp8
 70
     1
102
RTVSPropertyOp9
 70
     1
102
RTVSPropertyOp10
 70
     1
102
RTVSPropertyOp11
 70
     1
102
RTVSPropertyOp12
 70
     1
102
RTVSPropertyOp13
 70
     1
102
RTVSPropertyOp14
 70
     1
102
RTVSPropertyOp15
 70
     1
102
RTVSPropertyOp16
 70
     1
102
RTVSPropertyOp17
 70
     1
102
RTVSPropertyOp18
 70
     1
102
RTVSPropertyOp19
 70
     1
102
RTVSPropertyOp20
 70
     1
102
RTVSPropertyOp21
 70
     1
102
RTVSPropertyOp22
 70
     1
102
RTVSPropertyOp23
 70
     1
102
RTVSPropertyOp24
 70
     1
102
RTVSPropertyOp25
 70
     1
102
RTVSPropertyOp26
 70
     1
102
RTVSPropertyOp27
 70
     1
102
RTVSPropertyOp28
 70
     1
102
RTVSPropertyOp29
 70
     1
102
RTVSPropertyOp30
 70
     1
102
RTVSPropertyOp31
 70
     1
102
RTVSPropertyOp32
 70
     1
102
RTVSPropertyOp33
 70
     1
102
RTVSPropertyOp34
 70
     1
102
RTVSPropertyOp35
 70
     1
102
RTVSPropertyOp36
 70
     1
102
RTVSPropertyOp37
 70
     1
102
RTVSPropertyOp38
 70
     1
102
RTVSPropertyOp39
 70
     1
102
RTVSPropertyOp40
 70
     1
102
RTVSPropertyOp41
 70
     1
102
RTVSPropertyOp42
 70
     1
102
RTVSPropertyOp43
 70
     1
102
RTVSPropertyOp44
 70
     1
102
RTVSPropertyOp45
 70
     1
102
RTVSPropertyOp46
 70
     1
102
RTVSPropertyOp47
 70
     1
102
RTVSPropertyOp48
 70
     1
102
RTVSPropertyOp49
 70
     1
102
RTVSPropertyOp50
 70
     1
102
RTVSPropertyOp51
 70
     0
102
RTVSPropertyOp52
 70
     0
102
RTVSPropertyOp53
 70
     1
102
RTVSPropertyOp54
 70
     1
102
RTVSPropertyOp55
 70
     1
102
RTVSPropertyOp56
 70
     1
102
RTVSPropertyOp57
 70
     1
102
RTVSPropertyOp58
 70
     1
102
RTVSPropertyOp59
 70
     1
102
RTVSPropertyOp60
 70
     1
102
RTVSPropertyOp61
 70
     1
102
RTVSPropertyOp62
 70
     1
  0
XRECORD
  5
1EBC
102
{ACAD_REACTORS
330
1EBB
102
}
330
1EBB
100
AcDbXrecord
280
     1
102
RTVSPost2010Prop28
280
     0
102
RTVSPost2010PropOp28
 70
     1
102
RTVSPost2010Prop29
280
     1
102
RTVSPost2010PropOp29
 70
     1
102
RTVSPost2010Prop30
280
     1
102
RTVSPost2010PropOp30
 70
     1
102
RTVSPost2010Prop31
280
     0
102
RTVSPost2010PropOp31
 70
     1
102
RTVSPost2010Prop32
280
     0
102
RTVSPost2010PropOp32
 70
     1
102
RTVSPost2010Prop33
280
     0
102
RTVSPost2010PropOp33
 70
     1
102
RTVSPost2010Prop34
280
     0
102
RTVSPost2010PropOp34
 70
     1
102
RTVSPost2010Prop35
280
     0
102
RTVSPost2010PropOp35
 70
     1
102
RTVSPost2010Prop36
280
     0
102
RTVSPost2010PropOp36
 70
     1
102
RTVSPost2010Prop37
 90
       50
102
RTVSPost2010PropOp37
 70
     1
102
RTVSPost2010Prop38
140
0.0
102
RTVSPost2010PropOp38
 70
     1
102
RTVSPost2010Prop39
140
1.0
102
RTVSPost2010PropOp39
 70
     1
102
RTVSPost2010Prop40
 90
        0
102
RTVSPost2010PropOp40
 70
     1
102
RTVSPost2010Prop41ColorIndex
 90
       18
102
RTVSPost2010Prop41ColorRGB
 90
        0
102
RTVSPost2010PropOp41
 70
     1
102
RTVSPost2010Prop42
 90
       50
102
RTVSPost2010PropOp42
 70
     1
102
RTVSPost2010Prop43
 90
        3
102
RTVSPost2010PropOp43
 70
     1
102
RTVSPost2010Prop44ColorIndex
 90
        5
102
RTVSPost2010Prop44ColorRGB
 90
      255
102
RTVSPost2010PropOp44
 70
     1
102
RTVSPost2010Prop45
280
     0
102
RTVSPost2010PropOp45
 70
     1
102
RTVSPost2010Prop46
 90
       50
102
RTVSPost2010PropOp46
 70
     1
102
RTVSPost2010Prop47
 90
       50
102
RTVSPost2010PropOp47
 70
     1
102
RTVSPost2010Prop48
 90
       50
102
RTVSPost2010PropOp48
 70
     1
102
RTVSPost2010Prop49
280
     0
102
RTVSPost2010PropOp49
 70
     1
102
RTVSPost2010Prop50
 90
       50
102
RTVSPost2010PropOp50
 70
     1
102
RTVSPost2010Prop51ColorIndex
 90
      256
102
RTVSPost2010Prop51ColorRGB
 90
-16777216
102
RTVSPost2010PropOp51
 70
     0
102
RTVSPost2010Prop52
140
1.0
102
RTVSPost2010PropOp52
 70
     0
102
RTVSPost2010Prop53
 90
        2
102
RTVSPost2010PropOp53
 70
     1
102
RTVSPost2010Prop54
  1
strokes_ogs.tif
102
RTVSPost2010PropOp54
 70
     1
102
RTVSPost2010Prop55
280
     0
102
RTVSPost2010PropOp55
 70
     1
102
RTVSPost2010Prop56
140
1.0
102
RTVSPost2010PropOp56
 70
     1
102
RTVSPost2010Prop57
140
1.0
102
RTVSPost2010PropOp57
 70
     1
102
RTVSPropertyOp0
 70
     1
102
RTVSPropertyOp1
 70
     1
102
RTVSPropertyOp2
 70
     1
102
RTVSPropertyOp3
 70
     1
102
RTVSPropertyOp4
 70
     1
102
RTVSPropertyOp5
 70
     1
102
RTVSPropertyOp6
 70
     1
102
RTVSPropertyOp7
 70
     1
102
RTVSPropertyOp8
 70
     1
102
RTVSPropertyOp9
 70
     1
102
RTVSPropertyOp10
 70
     1
102
RTVSPropertyOp11
 70
     1
102
RTVSPropertyOp12
 70
     1
102
RTVSPropertyOp13
 70
     1
102
RTVSPropertyOp14
 70
     1
102
RTVSPropertyOp15
 70
     1
102
RTVSPropertyOp16
 70
     1
102
RTVSPropertyOp17
 70
     1
102
RTVSPropertyOp18
 70
     1
102
RTVSPropertyOp19
 70
     1
102
RTVSPropertyOp20
 70
     1
102
RTVSPropertyOp21
 70
     1
102
RTVSPropertyOp22
 70
     1
102
RTVSPropertyOp23
 70
     1
102
RTVSPropertyOp24
 70
     1
102
RTVSPropertyOp25
 70
     1
102
RTVSPropertyOp26
 70
     1
102
RTVSPropertyOp27
 70
     1
102
RTVSPropertyOp28
 70
     1
102
RTVSPropertyOp29
 70
     1
102
RTVSPropertyOp30
 70
     1
102
RTVSPropertyOp31
 70
     1
102
RTVSPropertyOp32
 70
     1
102
RTVSPropertyOp33
 70
     1
102
RTVSPropertyOp34
 70
     1
102
RTVSPropertyOp35
 70
     1
102
RTVSPropertyOp36
 70
     1
102
RTVSPropertyOp37
 70
     1
102
RTVSPropertyOp38
 70
     1
102
RTVSPropertyOp39
 70
     1
102
RTVSPropertyOp40
 70
     1
102
RTVSPropertyOp41
 70
     1
102
RTVSPropertyOp42
 70
     1
102
RTVSPropertyOp43
 70
     1
102
RTVSPropertyOp44
 70
     1
102
RTVSPropertyOp45
 70
     1
102
RTVSPropertyOp46
 70
     1
102
RTVSPropertyOp47
 70
     1
102
RTVSPropertyOp48
 70
     1
102
RTVSPropertyOp49
 70
     1
102
RTVSPropertyOp50
 70
     1
102
RTVSPropertyOp51
 70
     0
102
RTVSPropertyOp52
 70
     0
102
RTVSPropertyOp53
 70
     1
102
RTVSPropertyOp54
 70
     1
102
RTVSPropertyOp55
 70
     1
102
RTVSPropertyOp56
 70
     1
102
RTVSPropertyOp57
 70
     1
102
RTVSPropertyOp58
 70
     1
102
RTVSPropertyOp59
 70
     1
102
RTVSPropertyOp60
 70
     1
102
RTVSPropertyOp61
 70
     1
102
RTVSPropertyOp62
 70
     1
  0
XRECORD
  5
1EAE
102
{ACAD_REACTORS
330
1EAD
102
}
330
1EAD
100
AcDbXrecord
280
     1
102
RTVSPost2010Prop28
280
     0
102
RTVSPost2010PropOp28
 70
     1
102
RTVSPost2010Prop29
280
     1
102
RTVSPost2010PropOp29
 70
     1
102
RTVSPost2010Prop30
280
     1
102
RTVSPost2010PropOp30
 70
     1
102
RTVSPost2010Prop31
280
     0
102
RTVSPost2010PropOp31
 70
     1
102
RTVSPost2010Prop32
280
     0
102
RTVSPost2010PropOp32
 70
     1
102
RTVSPost2010Prop33
280
     0
102
RTVSPost2010PropOp33
 70
     1
102
RTVSPost2010Prop34
280
     0
102
RTVSPost2010PropOp34
 70
     1
102
RTVSPost2010Prop35
280
     0
102
RTVSPost2010PropOp35
 70
     1
102
RTVSPost2010Prop36
280
     0
102
RTVSPost2010PropOp36
 70
     1
102
RTVSPost2010Prop37
 90
       50
102
RTVSPost2010PropOp37
 70
     1
102
RTVSPost2010Prop38
140
0.0
102
RTVSPost2010PropOp38
 70
     1
102
RTVSPost2010Prop39
140
1.0
102
RTVSPost2010PropOp39
 70
     1
102
RTVSPost2010Prop40
 90
        0
102
RTVSPost2010PropOp40
 70
     1
102
RTVSPost2010Prop41ColorIndex
 90
       18
102
RTVSPost2010Prop41ColorRGB
 90
        0
102
RTVSPost2010PropOp41
 70
     1
102
RTVSPost2010Prop42
 90
       50
102
RTVSPost2010PropOp42
 70
     1
102
RTVSPost2010Prop43
 90
        3
102
RTVSPost2010PropOp43
 70
     1
102
RTVSPost2010Prop44ColorIndex
 90
        5
102
RTVSPost2010Prop44ColorRGB
 90
      255
102
RTVSPost2010PropOp44
 70
     1
102
RTVSPost2010Prop45
280
     0
102
RTVSPost2010PropOp45
 70
     1
102
RTVSPost2010Prop46
 90
       50
102
RTVSPost2010PropOp46
 70
     1
102
RTVSPost2010Prop47
 90
       50
102
RTVSPost2010PropOp47
 70
     1
102
RTVSPost2010Prop48
 90
       50
102
RTVSPost2010PropOp48
 70
     1
102
RTVSPost2010Prop49
280
     0
102
RTVSPost2010PropOp49
 70
     1
102
RTVSPost2010Prop50
 90
       50
102
RTVSPost2010PropOp50
 70
     1
102
RTVSPost2010Prop51ColorIndex
 90
      256
102
RTVSPost2010Prop51ColorRGB
 90
-16777216
102
RTVSPost2010PropOp51
 70
     0
102
RTVSPost2010Prop52
140
1.0
102
RTVSPost2010PropOp52
 70
     0
102
RTVSPost2010Prop53
 90
        2
102
RTVSPost2010PropOp53
 70
     1
102
RTVSPost2010Prop54
  1
strokes_ogs.tif
102
RTVSPost2010PropOp54
 70
     1
102
RTVSPost2010Prop55
280
     0
102
RTVSPost2010PropOp55
 70
     1
102
RTVSPost2010Prop56
140
1.0
102
RTVSPost2010PropOp56
 70
     1
102
RTVSPost2010Prop57
140
1.0
102
RTVSPost2010PropOp57
 70
     1
102
RTVSPropertyOp0
 70
     1
102
RTVSPropertyOp1
 70
     1
102
RTVSPropertyOp2
 70
     1
102
RTVSPropertyOp3
 70
     1
102
RTVSPropertyOp4
 70
     1
102
RTVSPropertyOp5
 70
     1
102
RTVSPropertyOp6
 70
     1
102
RTVSPropertyOp7
 70
     1
102
RTVSPropertyOp8
 70
     1
102
RTVSPropertyOp9
 70
     1
102
RTVSPropertyOp10
 70
     1
102
RTVSPropertyOp11
 70
     1
102
RTVSPropertyOp12
 70
     1
102
RTVSPropertyOp13
 70
     1
102
RTVSPropertyOp14
 70
     1
102
RTVSPropertyOp15
 70
     1
102
RTVSPropertyOp16
 70
     1
102
RTVSPropertyOp17
 70
     1
102
RTVSPropertyOp18
 70
     1
102
RTVSPropertyOp19
 70
     1
102
RTVSPropertyOp20
 70
     1
102
RTVSPropertyOp21
 70
     1
102
RTVSPropertyOp22
 70
     1
102
RTVSPropertyOp23
 70
     1
102
RTVSPropertyOp24
 70
     1
102
RTVSPropertyOp25
 70
     1
102
RTVSPropertyOp26
 70
     1
102
RTVSPropertyOp27
 70
     1
102
RTVSPropertyOp28
 70
     1
102
RTVSPropertyOp29
 70
     1
102
RTVSPropertyOp30
 70
     1
102
RTVSPropertyOp31
 70
     1
102
RTVSPropertyOp32
 70
     1
102
RTVSPropertyOp33
 70
     1
102
RTVSPropertyOp34
 70
     1
102
RTVSPropertyOp35
 70
     1
102
RTVSPropertyOp36
 70
     1
102
RTVSPropertyOp37
 70
     1
102
RTVSPropertyOp38
 70
     1
102
RTVSPropertyOp39
 70
     1
102
RTVSPropertyOp40
 70
     1
102
RTVSPropertyOp41
 70
     1
102
RTVSPropertyOp42
 70
     1
102
RTVSPropertyOp43
 70
     1
102
RTVSPropertyOp44
 70
     1
102
RTVSPropertyOp45
 70
     1
102
RTVSPropertyOp46
 70
     1
102
RTVSPropertyOp47
 70
     1
102
RTVSPropertyOp48
 70
     1
102
RTVSPropertyOp49
 70
     1
102
RTVSPropertyOp50
 70
     1
102
RTVSPropertyOp51
 70
     0
102
RTVSPropertyOp52
 70
     0
102
RTVSPropertyOp53
 70
     1
102
RTVSPropertyOp54
 70
     1
102
RTVSPropertyOp55
 70
     1
102
RTVSPropertyOp56
 70
     1
102
RTVSPropertyOp57
 70
     1
102
RTVSPropertyOp58
 70
     1
102
RTVSPropertyOp59
 70
     1
102
RTVSPropertyOp60
 70
     1
102
RTVSPropertyOp61
 70
     1
102
RTVSPropertyOp62
 70
     1
  0
XRECORD
  5
1EB2
102
{ACAD_REACTORS
330
1EB1
102
}
330
1EB1
100
AcDbXrecord
280
     1
102
RTVSPost2010Prop28
280
     0
102
RTVSPost2010PropOp28
 70
     1
102
RTVSPost2010Prop29
280
     1
102
RTVSPost2010PropOp29
 70
     1
102
RTVSPost2010Prop30
280
     1
102
RTVSPost2010PropOp30
 70
     1
102
RTVSPost2010Prop31
280
     0
102
RTVSPost2010PropOp31
 70
     1
102
RTVSPost2010Prop32
280
     0
102
RTVSPost2010PropOp32
 70
     1
102
RTVSPost2010Prop33
280
     0
102
RTVSPost2010PropOp33
 70
     1
102
RTVSPost2010Prop34
280
     0
102
RTVSPost2010PropOp34
 70
     1
102
RTVSPost2010Prop35
280
     0
102
RTVSPost2010PropOp35
 70
     1
102
RTVSPost2010Prop36
280
     0
102
RTVSPost2010PropOp36
 70
     1
102
RTVSPost2010Prop37
 90
       50
102
RTVSPost2010PropOp37
 70
     1
102
RTVSPost2010Prop38
140
0.0
102
RTVSPost2010PropOp38
 70
     1
102
RTVSPost2010Prop39
140
1.0
102
RTVSPost2010PropOp39
 70
     1
102
RTVSPost2010Prop40
 90
        0
102
RTVSPost2010PropOp40
 70
     1
102
RTVSPost2010Prop41ColorIndex
 90
       18
102
RTVSPost2010Prop41ColorRGB
 90
        0
102
RTVSPost2010PropOp41
 70
     1
102
RTVSPost2010Prop42
 90
       50
102
RTVSPost2010PropOp42
 70
     1
102
RTVSPost2010Prop43
 90
        3
102
RTVSPost2010PropOp43
 70
     1
102
RTVSPost2010Prop44ColorIndex
 90
        5
102
RTVSPost2010Prop44ColorRGB
 90
      255
102
RTVSPost2010PropOp44
 70
     1
102
RTVSPost2010Prop45
280
     0
102
RTVSPost2010PropOp45
 70
     1
102
RTVSPost2010Prop46
 90
       50
102
RTVSPost2010PropOp46
 70
     1
102
RTVSPost2010Prop47
 90
       50
102
RTVSPost2010PropOp47
 70
     1
102
RTVSPost2010Prop48
 90
       50
102
RTVSPost2010PropOp48
 70
     1
102
RTVSPost2010Prop49
280
     0
102
RTVSPost2010PropOp49
 70
     1
102
RTVSPost2010Prop50
 90
       50
102
RTVSPost2010PropOp50
 70
     1
102
RTVSPost2010Prop51ColorIndex
 90
      256
102
RTVSPost2010Prop51ColorRGB
 90
-16777216
102
RTVSPost2010PropOp51
 70
     0
102
RTVSPost2010Prop52
140
1.0
102
RTVSPost2010PropOp52
 70
     0
102
RTVSPost2010Prop53
 90
        2
102
RTVSPost2010PropOp53
 70
     1
102
RTVSPost2010Prop54
  1
strokes_ogs.tif
102
RTVSPost2010PropOp54
 70
     1
102
RTVSPost2010Prop55
280
     0
102
RTVSPost2010PropOp55
 70
     1
102
RTVSPost2010Prop56
140
1.0
102
RTVSPost2010PropOp56
 70
     1
102
RTVSPost2010Prop57
140
1.0
102
RTVSPost2010PropOp57
 70
     1
102
RTVSPropertyOp0
 70
     1
102
RTVSPropertyOp1
 70
     1
102
RTVSPropertyOp2
 70
     1
102
RTVSPropertyOp3
 70
     1
102
RTVSPropertyOp4
 70
     1
102
RTVSPropertyOp5
 70
     1
102
RTVSPropertyOp6
 70
     1
102
RTVSPropertyOp7
 70
     1
102
RTVSPropertyOp8
 70
     1
102
RTVSPropertyOp9
 70
     1
102
RTVSPropertyOp10
 70
     1
102
RTVSPropertyOp11
 70
     1
102
RTVSPropertyOp12
 70
     1
102
RTVSPropertyOp13
 70
     1
102
RTVSPropertyOp14
 70
     1
102
RTVSPropertyOp15
 70
     1
102
RTVSPropertyOp16
 70
     1
102
RTVSPropertyOp17
 70
     1
102
RTVSPropertyOp18
 70
     1
102
RTVSPropertyOp19
 70
     1
102
RTVSPropertyOp20
 70
     1
102
RTVSPropertyOp21
 70
     1
102
RTVSPropertyOp22
 70
     1
102
RTVSPropertyOp23
 70
     1
102
RTVSPropertyOp24
 70
     1
102
RTVSPropertyOp25
 70
     1
102
RTVSPropertyOp26
 70
     1
102
RTVSPropertyOp27
 70
     1
102
RTVSPropertyOp28
 70
     1
102
RTVSPropertyOp29
 70
     1
102
RTVSPropertyOp30
 70
     1
102
RTVSPropertyOp31
 70
     1
102
RTVSPropertyOp32
 70
     1
102
RTVSPropertyOp33
 70
     1
102
RTVSPropertyOp34
 70
     1
102
RTVSPropertyOp35
 70
     1
102
RTVSPropertyOp36
 70
     1
102
RTVSPropertyOp37
 70
     1
102
RTVSPropertyOp38
 70
     1
102
RTVSPropertyOp39
 70
     1
102
RTVSPropertyOp40
 70
     1
102
RTVSPropertyOp41
 70
     1
102
RTVSPropertyOp42
 70
     1
102
RTVSPropertyOp43
 70
     1
102
RTVSPropertyOp44
 70
     1
102
RTVSPropertyOp45
 70
     1
102
RTVSPropertyOp46
 70
     1
102
RTVSPropertyOp47
 70
     1
102
RTVSPropertyOp48
 70
     1
102
RTVSPropertyOp49
 70
     1
102
RTVSPropertyOp50
 70
     1
102
RTVSPropertyOp51
 70
     0
102
RTVSPropertyOp52
 70
     0
102
RTVSPropertyOp53
 70
     1
102
RTVSPropertyOp54
 70
     1
102
RTVSPropertyOp55
 70
     1
102
RTVSPropertyOp56
 70
     1
102
RTVSPropertyOp57
 70
     1
102
RTVSPropertyOp58
 70
     1
102
RTVSPropertyOp59
 70
     1
102
RTVSPropertyOp60
 70
     1
102
RTVSPropertyOp61
 70
     1
102
RTVSPropertyOp62
 70
     1
  0
XRECORD
  5
1EC4
102
{ACAD_REACTORS
330
1EC3
102
}
330
1EC3
100
AcDbXrecord
280
     1
102
RTVSPost2010Prop28
280
     0
102
RTVSPost2010PropOp28
 70
     1
102
RTVSPost2010Prop29
280
     1
102
RTVSPost2010PropOp29
 70
     1
102
RTVSPost2010Prop30
280
     1
102
RTVSPost2010PropOp30
 70
     1
102
RTVSPost2010Prop31
280
     0
102
RTVSPost2010PropOp31
 70
     1
102
RTVSPost2010Prop32
280
     0
102
RTVSPost2010PropOp32
 70
     1
102
RTVSPost2010Prop33
280
     0
102
RTVSPost2010PropOp33
 70
     1
102
RTVSPost2010Prop34
280
     0
102
RTVSPost2010PropOp34
 70
     1
102
RTVSPost2010Prop35
280
     0
102
RTVSPost2010PropOp35
 70
     1
102
RTVSPost2010Prop36
280
     0
102
RTVSPost2010PropOp36
 70
     1
102
RTVSPost2010Prop37
 90
       50
102
RTVSPost2010PropOp37
 70
     1
102
RTVSPost2010Prop38
140
0.0
102
RTVSPost2010PropOp38
 70
     1
102
RTVSPost2010Prop39
140
1.0
102
RTVSPost2010PropOp39
 70
     1
102
RTVSPost2010Prop40
 90
        0
102
RTVSPost2010PropOp40
 70
     1
102
RTVSPost2010Prop41ColorIndex
 90
       18
102
RTVSPost2010Prop41ColorRGB
 90
        0
102
RTVSPost2010PropOp41
 70
     1
102
RTVSPost2010Prop42
 90
       50
102
RTVSPost2010PropOp42
 70
     1
102
RTVSPost2010Prop43
 90
        3
102
RTVSPost2010PropOp43
 70
     1
102
RTVSPost2010Prop44ColorIndex
 90
        5
102
RTVSPost2010Prop44ColorRGB
 90
      255
102
RTVSPost2010PropOp44
 70
     1
102
RTVSPost2010Prop45
280
     0
102
RTVSPost2010PropOp45
 70
     1
102
RTVSPost2010Prop46
 90
       50
102
RTVSPost2010PropOp46
 70
     1
102
RTVSPost2010Prop47
 90
       50
102
RTVSPost2010PropOp47
 70
     1
102
RTVSPost2010Prop48
 90
       50
102
RTVSPost2010PropOp48
 70
     1
102
RTVSPost2010Prop49
280
     0
102
RTVSPost2010PropOp49
 70
     1
102
RTVSPost2010Prop50
 90
       50
102
RTVSPost2010PropOp50
 70
     1
102
RTVSPost2010Prop51ColorIndex
 90
      256
102
RTVSPost2010Prop51ColorRGB
 90
-16777216
102
RTVSPost2010PropOp51
 70
     0
102
RTVSPost2010Prop52
140
1.0
102
RTVSPost2010PropOp52
 70
     0
102
RTVSPost2010Prop53
 90
        2
102
RTVSPost2010PropOp53
 70
     1
102
RTVSPost2010Prop54
  1
strokes_ogs.tif
102
RTVSPost2010PropOp54
 70
     1
102
RTVSPost2010Prop55
280
     0
102
RTVSPost2010PropOp55
 70
     1
102
RTVSPost2010Prop56
140
1.0
102
RTVSPost2010PropOp56
 70
     1
102
RTVSPost2010Prop57
140
1.0
102
RTVSPost2010PropOp57
 70
     1
102
RTVSPropertyOp0
 70
     0
102
RTVSPropertyOp1
 70
     0
102
RTVSPropertyOp2
 70
     0
102
RTVSPropertyOp3
 70
     0
102
RTVSPropertyOp4
 70
     0
102
RTVSPropertyOp5
 70
     0
102
RTVSPropertyOp6
 70
     0
102
RTVSPropertyOp7
 70
     0
102
RTVSPropertyOp8
 70
     0
102
RTVSPropertyOp9
 70
     0
102
RTVSPropertyOp10
 70
     0
102
RTVSPropertyOp11
 70
     0
102
RTVSPropertyOp12
 70
     0
102
RTVSPropertyOp13
 70
     0
102
RTVSPropertyOp14
 70
     2
102
RTVSPropertyOp15
 70
     0
102
RTVSPropertyOp16
 70
     0
102
RTVSPropertyOp17
 70
     0
102
RTVSPropertyOp18
 70
     0
102
RTVSPropertyOp19
 70
     0
102
RTVSPropertyOp20
 70
     0
102
RTVSPropertyOp21
 70
     0
102
RTVSPropertyOp22
 70
     0
102
RTVSPropertyOp23
 70
     0
102
RTVSPropertyOp24
 70
     0
102
RTVSPropertyOp25
 70
     0
102
RTVSPropertyOp26
 70
     0
102
RTVSPropertyOp27
 70
     0
102
RTVSPropertyOp28
 70
     1
102
RTVSPropertyOp29
 70
     1
102
RTVSPropertyOp30
 70
     1
102
RTVSPropertyOp31
 70
     1
102
RTVSPropertyOp32
 70
     1
102
RTVSPropertyOp33
 70
     1
102
RTVSPropertyOp34
 70
     1
102
RTVSPropertyOp35
 70
     1
102
RTVSPropertyOp36
 70
     1
102
RTVSPropertyOp37
 70
     1
102
RTVSPropertyOp38
 70
     1
102
RTVSPropertyOp39
 70
     1
102
RTVSPropertyOp40
 70
     1
102
RTVSPropertyOp41
 70
     1
102
RTVSPropertyOp42
 70
     1
102
RTVSPropertyOp43
 70
     1
102
RTVSPropertyOp44
 70
     1
102
RTVSPropertyOp45
 70
     1
102
RTVSPropertyOp46
 70
     1
102
RTVSPropertyOp47
 70
     1
102
RTVSPropertyOp48
 70
     1
102
RTVSPropertyOp49
 70
     1
102
RTVSPropertyOp50
 70
     1
102
RTVSPropertyOp51
 70
     0
102
RTVSPropertyOp52
 70
     0
102
RTVSPropertyOp53
 70
     1
102
RTVSPropertyOp54
 70
     1
102
RTVSPropertyOp55
 70
     1
102
RTVSPropertyOp56
 70
     1
102
RTVSPropertyOp57
 70
     1
102
RTVSPropertyOp58
 70
     1
102
RTVSPropertyOp59
 70
     1
102
RTVSPropertyOp60
 70
     1
102
RTVSPropertyOp61
 70
     1
102
RTVSPropertyOp62
 70
     1
  0
XRECORD
  5
1EBA
102
{ACAD_REACTORS
330
1EB9
102
}
330
1EB9
100
AcDbXrecord
280
     1
102
RTVSPost2010Prop28
280
     0
102
RTVSPost2010PropOp28
 70
     1
102
RTVSPost2010Prop29
280
     1
102
RTVSPost2010PropOp29
 70
     1
102
RTVSPost2010Prop30
280
     1
102
RTVSPost2010PropOp30
 70
     1
102
RTVSPost2010Prop31
280
     0
102
RTVSPost2010PropOp31
 70
     1
102
RTVSPost2010Prop32
280
     0
102
RTVSPost2010PropOp32
 70
     1
102
RTVSPost2010Prop33
280
     0
102
RTVSPost2010PropOp33
 70
     1
102
RTVSPost2010Prop34
280
     0
102
RTVSPost2010PropOp34
 70
     1
102
RTVSPost2010Prop35
280
     0
102
RTVSPost2010PropOp35
 70
     1
102
RTVSPost2010Prop36
280
     0
102
RTVSPost2010PropOp36
 70
     1
102
RTVSPost2010Prop37
 90
       50
102
RTVSPost2010PropOp37
 70
     1
102
RTVSPost2010Prop38
140
0.0
102
RTVSPost2010PropOp38
 70
     1
102
RTVSPost2010Prop39
140
1.0
102
RTVSPost2010PropOp39
 70
     1
102
RTVSPost2010Prop40
 90
        0
102
RTVSPost2010PropOp40
 70
     1
102
RTVSPost2010Prop41ColorIndex
 90
       18
102
RTVSPost2010Prop41ColorRGB
 90
        0
102
RTVSPost2010PropOp41
 70
     1
102
RTVSPost2010Prop42
 90
       50
102
RTVSPost2010PropOp42
 70
     1
102
RTVSPost2010Prop43
 90
        3
102
RTVSPost2010PropOp43
 70
     1
102
RTVSPost2010Prop44ColorIndex
 90
        5
102
RTVSPost2010Prop44ColorRGB
 90
      255
102
RTVSPost2010PropOp44
 70
     1
102
RTVSPost2010Prop45
280
     0
102
RTVSPost2010PropOp45
 70
     1
102
RTVSPost2010Prop46
 90
       50
102
RTVSPost2010PropOp46
 70
     1
102
RTVSPost2010Prop47
 90
       50
102
RTVSPost2010PropOp47
 70
     1
102
RTVSPost2010Prop48
 90
       50
102
RTVSPost2010PropOp48
 70
     1
102
RTVSPost2010Prop49
280
     0
102
RTVSPost2010PropOp49
 70
     1
102
RTVSPost2010Prop50
 90
       50
102
RTVSPost2010PropOp50
 70
     1
102
RTVSPost2010Prop51ColorIndex
 90
      256
102
RTVSPost2010Prop51ColorRGB
 90
-16777216
102
RTVSPost2010PropOp51
 70
     0
102
RTVSPost2010Prop52
140
1.0
102
RTVSPost2010PropOp52
 70
     0
102
RTVSPost2010Prop53
 90
        2
102
RTVSPost2010PropOp53
 70
     1
102
RTVSPost2010Prop54
  1
strokes_ogs.tif
102
RTVSPost2010PropOp54
 70
     1
102
RTVSPost2010Prop55
280
     0
102
RTVSPost2010PropOp55
 70
     1
102
RTVSPost2010Prop56
140
1.0
102
RTVSPost2010PropOp56
 70
     1
102
RTVSPost2010Prop57
140
1.0
102
RTVSPost2010PropOp57
 70
     1
102
RTVSPropertyOp0
 70
     1
102
RTVSPropertyOp1
 70
     1
102
RTVSPropertyOp2
 70
     1
102
RTVSPropertyOp3
 70
     1
102
RTVSPropertyOp4
 70
     1
102
RTVSPropertyOp5
 70
     1
102
RTVSPropertyOp6
 70
     1
102
RTVSPropertyOp7
 70
     1
102
RTVSPropertyOp8
 70
     1
102
RTVSPropertyOp9
 70
     1
102
RTVSPropertyOp10
 70
     1
102
RTVSPropertyOp11
 70
     1
102
RTVSPropertyOp12
 70
     1
102
RTVSPropertyOp13
 70
     1
102
RTVSPropertyOp14
 70
     1
102
RTVSPropertyOp15
 70
     1
102
RTVSPropertyOp16
 70
     1
102
RTVSPropertyOp17
 70
     1
102
RTVSPropertyOp18
 70
     1
102
RTVSPropertyOp19
 70
     1
102
RTVSPropertyOp20
 70
     1
102
RTVSPropertyOp21
 70
     1
102
RTVSPropertyOp22
 70
     1
102
RTVSPropertyOp23
 70
     1
102
RTVSPropertyOp24
 70
     1
102
RTVSPropertyOp25
 70
     1
102
RTVSPropertyOp26
 70
     1
102
RTVSPropertyOp27
 70
     1
102
RTVSPropertyOp28
 70
     1
102
RTVSPropertyOp29
 70
     1
102
RTVSPropertyOp30
 70
     1
102
RTVSPropertyOp31
 70
     1
102
RTVSPropertyOp32
 70
     1
102
RTVSPropertyOp33
 70
     1
102
RTVSPropertyOp34
 70
     1
102
RTVSPropertyOp35
 70
     1
102
RTVSPropertyOp36
 70
     1
102
RTVSPropertyOp37
 70
     1
102
RTVSPropertyOp38
 70
     1
102
RTVSPropertyOp39
 70
     1
102
RTVSPropertyOp40
 70
     1
102
RTVSPropertyOp41
 70
     1
102
RTVSPropertyOp42
 70
     1
102
RTVSPropertyOp43
 70
     1
102
RTVSPropertyOp44
 70
     1
102
RTVSPropertyOp45
 70
     1
102
RTVSPropertyOp46
 70
     1
102
RTVSPropertyOp47
 70
     1
102
RTVSPropertyOp48
 70
     1
102
RTVSPropertyOp49
 70
     1
102
RTVSPropertyOp50
 70
     1
102
RTVSPropertyOp51
 70
     0
102
RTVSPropertyOp52
 70
     0
102
RTVSPropertyOp53
 70
     1
102
RTVSPropertyOp54
 70
     1
102
RTVSPropertyOp55
 70
     1
102
RTVSPropertyOp56
 70
     1
102
RTVSPropertyOp57
 70
     1
102
RTVSPropertyOp58
 70
     1
102
RTVSPropertyOp59
 70
     1
102
RTVSPropertyOp60
 70
     1
102
RTVSPropertyOp61
 70
     1
102
RTVSPropertyOp62
 70
     1
  0
XRECORD
  5
1E9E
102
{ACAD_REACTORS
330
1E9D
102
}
330
1E9D
100
AcDbXrecord
280
     1
102
RTVSPost2010Prop28
280
     0
102
RTVSPost2010PropOp28
 70
     1
102
RTVSPost2010Prop29
280
     1
102
RTVSPost2010PropOp29
 70
     1
102
RTVSPost2010Prop30
280
     1
102
RTVSPost2010PropOp30
 70
     1
102
RTVSPost2010Prop31
280
     0
102
RTVSPost2010PropOp31
 70
     1
102
RTVSPost2010Prop32
280
     0
102
RTVSPost2010PropOp32
 70
     1
102
RTVSPost2010Prop33
280
     0
102
RTVSPost2010PropOp33
 70
     1
102
RTVSPost2010Prop34
280
     0
102
RTVSPost2010PropOp34
 70
     1
102
RTVSPost2010Prop35
280
     0
102
RTVSPost2010PropOp35
 70
     1
102
RTVSPost2010Prop36
280
     0
102
RTVSPost2010PropOp36
 70
     1
102
RTVSPost2010Prop37
 90
       50
102
RTVSPost2010PropOp37
 70
     1
102
RTVSPost2010Prop38
140
0.0
102
RTVSPost2010PropOp38
 70
     1
102
RTVSPost2010Prop39
140
1.0
102
RTVSPost2010PropOp39
 70
     1
102
RTVSPost2010Prop40
 90
        0
102
RTVSPost2010PropOp40
 70
     1
102
RTVSPost2010Prop41ColorIndex
 90
       18
102
RTVSPost2010Prop41ColorRGB
 90
        0
102
RTVSPost2010PropOp41
 70
     1
102
RTVSPost2010Prop42
 90
       50
102
RTVSPost2010PropOp42
 70
     1
102
RTVSPost2010Prop43
 90
        3
102
RTVSPost2010PropOp43
 70
     1
102
RTVSPost2010Prop44ColorIndex
 90
        5
102
RTVSPost2010Prop44ColorRGB
 90
      255
102
RTVSPost2010PropOp44
 70
     1
102
RTVSPost2010Prop45
280
     0
102
RTVSPost2010PropOp45
 70
     1
102
RTVSPost2010Prop46
 90
       50
102
RTVSPost2010PropOp46
 70
     1
102
RTVSPost2010Prop47
 90
       50
102
RTVSPost2010PropOp47
 70
     1
102
RTVSPost2010Prop48
 90
       50
102
RTVSPost2010PropOp48
 70
     1
102
RTVSPost2010Prop49
280
     0
102
RTVSPost2010PropOp49
 70
     1
102
RTVSPost2010Prop50
 90
       50
102
RTVSPost2010PropOp50
 70
     1
102
RTVSPost2010Prop51ColorIndex
 90
      256
102
RTVSPost2010Prop51ColorRGB
 90
-16777216
102
RTVSPost2010PropOp51
 70
     0
102
RTVSPost2010Prop52
140
1.0
102
RTVSPost2010PropOp52
 70
     0
102
RTVSPost2010Prop53
 90
        2
102
RTVSPost2010PropOp53
 70
     1
102
RTVSPost2010Prop54
  1
strokes_ogs.tif
102
RTVSPost2010PropOp54
 70
     1
102
RTVSPost2010Prop55
280
     0
102
RTVSPost2010PropOp55
 70
     1
102
RTVSPost2010Prop56
140
1.0
102
RTVSPost2010PropOp56
 70
     1
102
RTVSPost2010Prop57
140
1.0
102
RTVSPost2010PropOp57
 70
     1
102
RTVSPropertyOp0
 70
     1
102
RTVSPropertyOp1
 70
     1
102
RTVSPropertyOp2
 70
     1
102
RTVSPropertyOp3
 70
     1
102
RTVSPropertyOp4
 70
     1
102
RTVSPropertyOp5
 70
     1
102
RTVSPropertyOp6
 70
     1
102
RTVSPropertyOp7
 70
     1
102
RTVSPropertyOp8
 70
     1
102
RTVSPropertyOp9
 70
     1
102
RTVSPropertyOp10
 70
     1
102
RTVSPropertyOp11
 70
     1
102
RTVSPropertyOp12
 70
     1
102
RTVSPropertyOp13
 70
     1
102
RTVSPropertyOp14
 70
     1
102
RTVSPropertyOp15
 70
     1
102
RTVSPropertyOp16
 70
     1
102
RTVSPropertyOp17
 70
     1
102
RTVSPropertyOp18
 70
     1
102
RTVSPropertyOp19
 70
     1
102
RTVSPropertyOp20
 70
     1
102
RTVSPropertyOp21
 70
     1
102
RTVSPropertyOp22
 70
     1
102
RTVSPropertyOp23
 70
     1
102
RTVSPropertyOp24
 70
     1
102
RTVSPropertyOp25
 70
     1
102
RTVSPropertyOp26
 70
     1
102
RTVSPropertyOp27
 70
     1
102
RTVSPropertyOp28
 70
     1
102
RTVSPropertyOp29
 70
     1
102
RTVSPropertyOp30
 70
     1
102
RTVSPropertyOp31
 70
     1
102
RTVSPropertyOp32
 70
     1
102
RTVSPropertyOp33
 70
     1
102
RTVSPropertyOp34
 70
     1
102
RTVSPropertyOp35
 70
     1
102
RTVSPropertyOp36
 70
     1
102
RTVSPropertyOp37
 70
     1
102
RTVSPropertyOp38
 70
     1
102
RTVSPropertyOp39
 70
     1
102
RTVSPropertyOp40
 70
     1
102
RTVSPropertyOp41
 70
     1
102
RTVSPropertyOp42
 70
     1
102
RTVSPropertyOp43
 70
     1
102
RTVSPropertyOp44
 70
     1
102
RTVSPropertyOp45
 70
     1
102
RTVSPropertyOp46
 70
     1
102
RTVSPropertyOp47
 70
     1
102
RTVSPropertyOp48
 70
     1
102
RTVSPropertyOp49
 70
     1
102
RTVSPropertyOp50
 70
     1
102
RTVSPropertyOp51
 70
     0
102
RTVSPropertyOp52
 70
     0
102
RTVSPropertyOp53
 70
     1
102
RTVSPropertyOp54
 70
     1
102
RTVSPropertyOp55
 70
     1
102
RTVSPropertyOp56
 70
     1
102
RTVSPropertyOp57
 70
     1
102
RTVSPropertyOp58
 70
     1
102
RTVSPropertyOp59
 70
     1
102
RTVSPropertyOp60
 70
     1
102
RTVSPropertyOp61
 70
     1
102
RTVSPropertyOp62
 70
     1
  0
XRECORD
  5
1EA0
102
{ACAD_REACTORS
330
1E9F
102
}
330
1E9F
100
AcDbXrecord
280
     1
102
RTVSPost2010Prop28
280
     0
102
RTVSPost2010PropOp28
 70
     1
102
RTVSPost2010Prop29
280
     1
102
RTVSPost2010PropOp29
 70
     1
102
RTVSPost2010Prop30
280
     1
102
RTVSPost2010PropOp30
 70
     1
102
RTVSPost2010Prop31
280
     0
102
RTVSPost2010PropOp31
 70
     1
102
RTVSPost2010Prop32
280
     0
102
RTVSPost2010PropOp32
 70
     1
102
RTVSPost2010Prop33
280
     0
102
RTVSPost2010PropOp33
 70
     1
102
RTVSPost2010Prop34
280
     0
102
RTVSPost2010PropOp34
 70
     1
102
RTVSPost2010Prop35
280
     0
102
RTVSPost2010PropOp35
 70
     1
102
RTVSPost2010Prop36
280
     0
102
RTVSPost2010PropOp36
 70
     1
102
RTVSPost2010Prop37
 90
       50
102
RTVSPost2010PropOp37
 70
     1
102
RTVSPost2010Prop38
140
0.0
102
RTVSPost2010PropOp38
 70
     1
102
RTVSPost2010Prop39
140
1.0
102
RTVSPost2010PropOp39
 70
     1
102
RTVSPost2010Prop40
 90
        0
102
RTVSPost2010PropOp40
 70
     1
102
RTVSPost2010Prop41ColorIndex
 90
       18
102
RTVSPost2010Prop41ColorRGB
 90
        0
102
RTVSPost2010PropOp41
 70
     1
102
RTVSPost2010Prop42
 90
       50
102
RTVSPost2010PropOp42
 70
     1
102
RTVSPost2010Prop43
 90
        3
102
RTVSPost2010PropOp43
 70
     1
102
RTVSPost2010Prop44ColorIndex
 90
        5
102
RTVSPost2010Prop44ColorRGB
 90
      255
102
RTVSPost2010PropOp44
 70
     1
102
RTVSPost2010Prop45
280
     0
102
RTVSPost2010PropOp45
 70
     1
102
RTVSPost2010Prop46
 90
       50
102
RTVSPost2010PropOp46
 70
     1
102
RTVSPost2010Prop47
 90
       50
102
RTVSPost2010PropOp47
 70
     1
102
RTVSPost2010Prop48
 90
       50
102
RTVSPost2010PropOp48
 70
     1
102
RTVSPost2010Prop49
280
     0
102
RTVSPost2010PropOp49
 70
     1
102
RTVSPost2010Prop50
 90
       50
102
RTVSPost2010PropOp50
 70
     1
102
RTVSPost2010Prop51ColorIndex
 90
      256
102
RTVSPost2010Prop51ColorRGB
 90
-16777216
102
RTVSPost2010PropOp51
 70
     0
102
RTVSPost2010Prop52
140
1.0
102
RTVSPost2010PropOp52
 70
     0
102
RTVSPost2010Prop53
 90
        2
102
RTVSPost2010PropOp53
 70
     1
102
RTVSPost2010Prop54
  1
strokes_ogs.tif
102
RTVSPost2010PropOp54
 70
     1
102
RTVSPost2010Prop55
280
     0
102
RTVSPost2010PropOp55
 70
     1
102
RTVSPost2010Prop56
140
1.0
102
RTVSPost2010PropOp56
 70
     1
102
RTVSPost2010Prop57
140
1.0
102
RTVSPost2010PropOp57
 70
     1
102
RTVSPropertyOp0
 70
     1
102
RTVSPropertyOp1
 70
     1
102
RTVSPropertyOp2
 70
     1
102
RTVSPropertyOp3
 70
     1
102
RTVSPropertyOp4
 70
     1
102
RTVSPropertyOp5
 70
     1
102
RTVSPropertyOp6
 70
     1
102
RTVSPropertyOp7
 70
     1
102
RTVSPropertyOp8
 70
     1
102
RTVSPropertyOp9
 70
     1
102
RTVSPropertyOp10
 70
     1
102
RTVSPropertyOp11
 70
     1
102
RTVSPropertyOp12
 70
     1
102
RTVSPropertyOp13
 70
     1
102
RTVSPropertyOp14
 70
     1
102
RTVSPropertyOp15
 70
     1
102
RTVSPropertyOp16
 70
     1
102
RTVSPropertyOp17
 70
     1
102
RTVSPropertyOp18
 70
     1
102
RTVSPropertyOp19
 70
     1
102
RTVSPropertyOp20
 70
     1
102
RTVSPropertyOp21
 70
     1
102
RTVSPropertyOp22
 70
     1
102
RTVSPropertyOp23
 70
     1
102
RTVSPropertyOp24
 70
     1
102
RTVSPropertyOp25
 70
     1
102
RTVSPropertyOp26
 70
     1
102
RTVSPropertyOp27
 70
     1
102
RTVSPropertyOp28
 70
     1
102
RTVSPropertyOp29
 70
     1
102
RTVSPropertyOp30
 70
     1
102
RTVSPropertyOp31
 70
     1
102
RTVSPropertyOp32
 70
     1
102
RTVSPropertyOp33
 70
     1
102
RTVSPropertyOp34
 70
     1
102
RTVSPropertyOp35
 70
     1
102
RTVSPropertyOp36
 70
     1
102
RTVSPropertyOp37
 70
     1
102
RTVSPropertyOp38
 70
     1
102
RTVSPropertyOp39
 70
     1
102
RTVSPropertyOp40
 70
     1
102
RTVSPropertyOp41
 70
     1
102
RTVSPropertyOp42
 70
     1
102
RTVSPropertyOp43
 70
     1
102
RTVSPropertyOp44
 70
     1
102
RTVSPropertyOp45
 70
     1
102
RTVSPropertyOp46
 70
     1
102
RTVSPropertyOp47
 70
     1
102
RTVSPropertyOp48
 70
     1
102
RTVSPropertyOp49
 70
     1
102
RTVSPropertyOp50
 70
     1
102
RTVSPropertyOp51
 70
     0
102
RTVSPropertyOp52
 70
     0
102
RTVSPropertyOp53
 70
     1
102
RTVSPropertyOp54
 70
     1
102
RTVSPropertyOp55
 70
     1
102
RTVSPropertyOp56
 70
     1
102
RTVSPropertyOp57
 70
     1
102
RTVSPropertyOp58
 70
     1
102
RTVSPropertyOp59
 70
     1
102
RTVSPropertyOp60
 70
     1
102
RTVSPropertyOp61
 70
     1
102
RTVSPropertyOp62
 70
     1
  0
XRECORD
  5
1EA2
102
{ACAD_REACTORS
330
1EA1
102
}
330
1EA1
100
AcDbXrecord
280
     1
102
RTVSPost2010Prop28
280
     0
102
RTVSPost2010PropOp28
 70
     1
102
RTVSPost2010Prop29
280
     1
102
RTVSPost2010PropOp29
 70
     1
102
RTVSPost2010Prop30
280
     1
102
RTVSPost2010PropOp30
 70
     1
102
RTVSPost2010Prop31
280
     0
102
RTVSPost2010PropOp31
 70
     1
102
RTVSPost2010Prop32
280
     0
102
RTVSPost2010PropOp32
 70
     1
102
RTVSPost2010Prop33
280
     0
102
RTVSPost2010PropOp33
 70
     1
102
RTVSPost2010Prop34
280
     0
102
RTVSPost2010PropOp34
 70
     1
102
RTVSPost2010Prop35
280
     0
102
RTVSPost2010PropOp35
 70
     1
102
RTVSPost2010Prop36
280
     0
102
RTVSPost2010PropOp36
 70
     1
102
RTVSPost2010Prop37
 90
       50
102
RTVSPost2010PropOp37
 70
     1
102
RTVSPost2010Prop38
140
0.0
102
RTVSPost2010PropOp38
 70
     1
102
RTVSPost2010Prop39
140
1.0
102
RTVSPost2010PropOp39
 70
     1
102
RTVSPost2010Prop40
 90
        0
102
RTVSPost2010PropOp40
 70
     1
102
RTVSPost2010Prop41ColorIndex
 90
       18
102
RTVSPost2010Prop41ColorRGB
 90
        0
102
RTVSPost2010PropOp41
 70
     1
102
RTVSPost2010Prop42
 90
       50
102
RTVSPost2010PropOp42
 70
     1
102
RTVSPost2010Prop43
 90
        3
102
RTVSPost2010PropOp43
 70
     1
102
RTVSPost2010Prop44ColorIndex
 90
        5
102
RTVSPost2010Prop44ColorRGB
 90
      255
102
RTVSPost2010PropOp44
 70
     1
102
RTVSPost2010Prop45
280
     0
102
RTVSPost2010PropOp45
 70
     1
102
RTVSPost2010Prop46
 90
       50
102
RTVSPost2010PropOp46
 70
     1
102
RTVSPost2010Prop47
 90
       50
102
RTVSPost2010PropOp47
 70
     1
102
RTVSPost2010Prop48
 90
       50
102
RTVSPost2010PropOp48
 70
     1
102
RTVSPost2010Prop49
280
     0
102
RTVSPost2010PropOp49
 70
     1
102
RTVSPost2010Prop50
 90
       50
102
RTVSPost2010PropOp50
 70
     1
102
RTVSPost2010Prop51ColorIndex
 90
      256
102
RTVSPost2010Prop51ColorRGB
 90
-16777216
102
RTVSPost2010PropOp51
 70
     0
102
RTVSPost2010Prop52
140
1.0
102
RTVSPost2010PropOp52
 70
     0
102
RTVSPost2010Prop53
 90
        2
102
RTVSPost2010PropOp53
 70
     1
102
RTVSPost2010Prop54
  1
strokes_ogs.tif
102
RTVSPost2010PropOp54
 70
     1
102
RTVSPost2010Prop55
280
     0
102
RTVSPost2010PropOp55
 70
     1
102
RTVSPost2010Prop56
140
1.0
102
RTVSPost2010PropOp56
 70
     1
102
RTVSPost2010Prop57
140
1.0
102
RTVSPost2010PropOp57
 70
     1
102
RTVSPropertyOp0
 70
     1
102
RTVSPropertyOp1
 70
     1
102
RTVSPropertyOp2
 70
     1
102
RTVSPropertyOp3
 70
     1
102
RTVSPropertyOp4
 70
     1
102
RTVSPropertyOp5
 70
     1
102
RTVSPropertyOp6
 70
     1
102
RTVSPropertyOp7
 70
     1
102
RTVSPropertyOp8
 70
     1
102
RTVSPropertyOp9
 70
     1
102
RTVSPropertyOp10
 70
     1
102
RTVSPropertyOp11
 70
     1
102
RTVSPropertyOp12
 70
     1
102
RTVSPropertyOp13
 70
     1
102
RTVSPropertyOp14
 70
     1
102
RTVSPropertyOp15
 70
     1
102
RTVSPropertyOp16
 70
     1
102
RTVSPropertyOp17
 70
     1
102
RTVSPropertyOp18
 70
     1
102
RTVSPropertyOp19
 70
     1
102
RTVSPropertyOp20
 70
     1
102
RTVSPropertyOp21
 70
     1
102
RTVSPropertyOp22
 70
     1
102
RTVSPropertyOp23
 70
     1
102
RTVSPropertyOp24
 70
     1
102
RTVSPropertyOp25
 70
     1
102
RTVSPropertyOp26
 70
     1
102
RTVSPropertyOp27
 70
     1
102
RTVSPropertyOp28
 70
     1
102
RTVSPropertyOp29
 70
     1
102
RTVSPropertyOp30
 70
     1
102
RTVSPropertyOp31
 70
     1
102
RTVSPropertyOp32
 70
     1
102
RTVSPropertyOp33
 70
     1
102
RTVSPropertyOp34
 70
     1
102
RTVSPropertyOp35
 70
     1
102
RTVSPropertyOp36
 70
     1
102
RTVSPropertyOp37
 70
     1
102
RTVSPropertyOp38
 70
     1
102
RTVSPropertyOp39
 70
     1
102
RTVSPropertyOp40
 70
     1
102
RTVSPropertyOp41
 70
     1
102
RTVSPropertyOp42
 70
     1
102
RTVSPropertyOp43
 70
     1
102
RTVSPropertyOp44
 70
     1
102
RTVSPropertyOp45
 70
     1
102
RTVSPropertyOp46
 70
     1
102
RTVSPropertyOp47
 70
     1
102
RTVSPropertyOp48
 70
     1
102
RTVSPropertyOp49
 70
     1
102
RTVSPropertyOp50
 70
     1
102
RTVSPropertyOp51
 70
     0
102
RTVSPropertyOp52
 70
     0
102
RTVSPropertyOp53
 70
     1
102
RTVSPropertyOp54
 70
     1
102
RTVSPropertyOp55
 70
     1
102
RTVSPropertyOp56
 70
     1
102
RTVSPropertyOp57
 70
     1
102
RTVSPropertyOp58
 70
     1
102
RTVSPropertyOp59
 70
     1
102
RTVSPropertyOp60
 70
     1
102
RTVSPropertyOp61
 70
     1
102
RTVSPropertyOp62
 70
     1
  0
XRECORD
  5
1EA4
102
{ACAD_REACTORS
330
1EA3
102
}
330
1EA3
100
AcDbXrecord
280
     1
102
RTVSPost2010Prop28
280
     0
102
RTVSPost2010PropOp28
 70
     1
102
RTVSPost2010Prop29
280
     1
102
RTVSPost2010PropOp29
 70
     1
102
RTVSPost2010Prop30
280
     1
102
RTVSPost2010PropOp30
 70
     1
102
RTVSPost2010Prop31
280
     0
102
RTVSPost2010PropOp31
 70
     1
102
RTVSPost2010Prop32
280
     0
102
RTVSPost2010PropOp32
 70
     1
102
RTVSPost2010Prop33
280
     0
102
RTVSPost2010PropOp33
 70
     1
102
RTVSPost2010Prop34
280
     0
102
RTVSPost2010PropOp34
 70
     1
102
RTVSPost2010Prop35
280
     0
102
RTVSPost2010PropOp35
 70
     1
102
RTVSPost2010Prop36
280
     0
102
RTVSPost2010PropOp36
 70
     1
102
RTVSPost2010Prop37
 90
       50
102
RTVSPost2010PropOp37
 70
     1
102
RTVSPost2010Prop38
140
0.0
102
RTVSPost2010PropOp38
 70
     1
102
RTVSPost2010Prop39
140
1.0
102
RTVSPost2010PropOp39
 70
     1
102
RTVSPost2010Prop40
 90
        0
102
RTVSPost2010PropOp40
 70
     1
102
RTVSPost2010Prop41ColorIndex
 90
       18
102
RTVSPost2010Prop41ColorRGB
 90
        0
102
RTVSPost2010PropOp41
 70
     1
102
RTVSPost2010Prop42
 90
       50
102
RTVSPost2010PropOp42
 70
     1
102
RTVSPost2010Prop43
 90
        3
102
RTVSPost2010PropOp43
 70
     1
102
RTVSPost2010Prop44ColorIndex
 90
        5
102
RTVSPost2010Prop44ColorRGB
 90
      255
102
RTVSPost2010PropOp44
 70
     1
102
RTVSPost2010Prop45
280
     0
102
RTVSPost2010PropOp45
 70
     1
102
RTVSPost2010Prop46
 90
       50
102
RTVSPost2010PropOp46
 70
     1
102
RTVSPost2010Prop47
 90
       50
102
RTVSPost2010PropOp47
 70
     1
102
RTVSPost2010Prop48
 90
       50
102
RTVSPost2010PropOp48
 70
     1
102
RTVSPost2010Prop49
280
     0
102
RTVSPost2010PropOp49
 70
     1
102
RTVSPost2010Prop50
 90
       50
102
RTVSPost2010PropOp50
 70
     1
102
RTVSPost2010Prop51ColorIndex
 90
      256
102
RTVSPost2010Prop51ColorRGB
 90
-16777216
102
RTVSPost2010PropOp51
 70
     0
102
RTVSPost2010Prop52
140
1.0
102
RTVSPost2010PropOp52
 70
     0
102
RTVSPost2010Prop53
 90
        2
102
RTVSPost2010PropOp53
 70
     1
102
RTVSPost2010Prop54
  1
strokes_ogs.tif
102
RTVSPost2010PropOp54
 70
     1
102
RTVSPost2010Prop55
280
     0
102
RTVSPost2010PropOp55
 70
     1
102
RTVSPost2010Prop56
140
1.0
102
RTVSPost2010PropOp56
 70
     1
102
RTVSPost2010Prop57
140
1.0
102
RTVSPost2010PropOp57
 70
     1
102
RTVSPropertyOp0
 70
     1
102
RTVSPropertyOp1
 70
     1
102
RTVSPropertyOp2
 70
     1
102
RTVSPropertyOp3
 70
     1
102
RTVSPropertyOp4
 70
     1
102
RTVSPropertyOp5
 70
     1
102
RTVSPropertyOp6
 70
     1
102
RTVSPropertyOp7
 70
     1
102
RTVSPropertyOp8
 70
     1
102
RTVSPropertyOp9
 70
     1
102
RTVSPropertyOp10
 70
     1
102
RTVSPropertyOp11
 70
     1
102
RTVSPropertyOp12
 70
     1
102
RTVSPropertyOp13
 70
     1
102
RTVSPropertyOp14
 70
     1
102
RTVSPropertyOp15
 70
     1
102
RTVSPropertyOp16
 70
     1
102
RTVSPropertyOp17
 70
     1
102
RTVSPropertyOp18
 70
     1
102
RTVSPropertyOp19
 70
     1
102
RTVSPropertyOp20
 70
     1
102
RTVSPropertyOp21
 70
     1
102
RTVSPropertyOp22
 70
     1
102
RTVSPropertyOp23
 70
     1
102
RTVSPropertyOp24
 70
     1
102
RTVSPropertyOp25
 70
     1
102
RTVSPropertyOp26
 70
     1
102
RTVSPropertyOp27
 70
     1
102
RTVSPropertyOp28
 70
     1
102
RTVSPropertyOp29
 70
     1
102
RTVSPropertyOp30
 70
     1
102
RTVSPropertyOp31
 70
     1
102
RTVSPropertyOp32
 70
     1
102
RTVSPropertyOp33
 70
     1
102
RTVSPropertyOp34
 70
     1
102
RTVSPropertyOp35
 70
     1
102
RTVSPropertyOp36
 70
     1
102
RTVSPropertyOp37
 70
     1
102
RTVSPropertyOp38
 70
     1
102
RTVSPropertyOp39
 70
     1
102
RTVSPropertyOp40
 70
     1
102
RTVSPropertyOp41
 70
     1
102
RTVSPropertyOp42
 70
     1
102
RTVSPropertyOp43
 70
     1
102
RTVSPropertyOp44
 70
     1
102
RTVSPropertyOp45
 70
     1
102
RTVSPropertyOp46
 70
     1
102
RTVSPropertyOp47
 70
     1
102
RTVSPropertyOp48
 70
     1
102
RTVSPropertyOp49
 70
     1
102
RTVSPropertyOp50
 70
     1
102
RTVSPropertyOp51
 70
     0
102
RTVSPropertyOp52
 70
     0
102
RTVSPropertyOp53
 70
     1
102
RTVSPropertyOp54
 70
     1
102
RTVSPropertyOp55
 70
     1
102
RTVSPropertyOp56
 70
     1
102
RTVSPropertyOp57
 70
     1
102
RTVSPropertyOp58
 70
     1
102
RTVSPropertyOp59
 70
     1
102
RTVSPropertyOp60
 70
     1
102
RTVSPropertyOp61
 70
     1
102
RTVSPropertyOp62
 70
     1
  0
XRECORD
  5
1EAC
102
{ACAD_REACTORS
330
1EAB
102
}
330
1EAB
100
AcDbXrecord
280
     1
102
RTVSPost2010Prop28
280
     0
102
RTVSPost2010PropOp28
 70
     1
102
RTVSPost2010Prop29
280
     1
102
RTVSPost2010PropOp29
 70
     1
102
RTVSPost2010Prop30
280
     1
102
RTVSPost2010PropOp30
 70
     1
102
RTVSPost2010Prop31
280
     0
102
RTVSPost2010PropOp31
 70
     1
102
RTVSPost2010Prop32
280
     0
102
RTVSPost2010PropOp32
 70
     1
102
RTVSPost2010Prop33
280
     0
102
RTVSPost2010PropOp33
 70
     1
102
RTVSPost2010Prop34
280
     0
102
RTVSPost2010PropOp34
 70
     1
102
RTVSPost2010Prop35
280
     0
102
RTVSPost2010PropOp35
 70
     1
102
RTVSPost2010Prop36
280
     0
102
RTVSPost2010PropOp36
 70
     1
102
RTVSPost2010Prop37
 90
       50
102
RTVSPost2010PropOp37
 70
     1
102
RTVSPost2010Prop38
140
0.0
102
RTVSPost2010PropOp38
 70
     1
102
RTVSPost2010Prop39
140
1.0
102
RTVSPost2010PropOp39
 70
     1
102
RTVSPost2010Prop40
 90
        0
102
RTVSPost2010PropOp40
 70
     1
102
RTVSPost2010Prop41ColorIndex
 90
       18
102
RTVSPost2010Prop41ColorRGB
 90
        0
102
RTVSPost2010PropOp41
 70
     1
102
RTVSPost2010Prop42
 90
       50
102
RTVSPost2010PropOp42
 70
     1
102
RTVSPost2010Prop43
 90
        3
102
RTVSPost2010PropOp43
 70
     1
102
RTVSPost2010Prop44ColorIndex
 90
        5
102
RTVSPost2010Prop44ColorRGB
 90
      255
102
RTVSPost2010PropOp44
 70
     1
102
RTVSPost2010Prop45
280
     0
102
RTVSPost2010PropOp45
 70
     1
102
RTVSPost2010Prop46
 90
       50
102
RTVSPost2010PropOp46
 70
     1
102
RTVSPost2010Prop47
 90
       50
102
RTVSPost2010PropOp47
 70
     1
102
RTVSPost2010Prop48
 90
       50
102
RTVSPost2010PropOp48
 70
     1
102
RTVSPost2010Prop49
280
     0
102
RTVSPost2010PropOp49
 70
     1
102
RTVSPost2010Prop50
 90
       50
102
RTVSPost2010PropOp50
 70
     1
102
RTVSPost2010Prop51ColorIndex
 90
      256
102
RTVSPost2010Prop51ColorRGB
 90
-16777216
102
RTVSPost2010PropOp51
 70
     0
102
RTVSPost2010Prop52
140
1.0
102
RTVSPost2010PropOp52
 70
     0
102
RTVSPost2010Prop53
 90
        2
102
RTVSPost2010PropOp53
 70
     1
102
RTVSPost2010Prop54
  1
strokes_ogs.tif
102
RTVSPost2010PropOp54
 70
     1
102
RTVSPost2010Prop55
280
     0
102
RTVSPost2010PropOp55
 70
     1
102
RTVSPost2010Prop56
140
1.0
102
RTVSPost2010PropOp56
 70
     1
102
RTVSPost2010Prop57
140
1.0
102
RTVSPost2010PropOp57
 70
     1
102
RTVSPropertyOp0
 70
     1
102
RTVSPropertyOp1
 70
     1
102
RTVSPropertyOp2
 70
     1
102
RTVSPropertyOp3
 70
     1
102
RTVSPropertyOp4
 70
     1
102
RTVSPropertyOp5
 70
     1
102
RTVSPropertyOp6
 70
     1
102
RTVSPropertyOp7
 70
     1
102
RTVSPropertyOp8
 70
     1
102
RTVSPropertyOp9
 70
     1
102
RTVSPropertyOp10
 70
     1
102
RTVSPropertyOp11
 70
     1
102
RTVSPropertyOp12
 70
     1
102
RTVSPropertyOp13
 70
     1
102
RTVSPropertyOp14
 70
     1
102
RTVSPropertyOp15
 70
     1
102
RTVSPropertyOp16
 70
     1
102
RTVSPropertyOp17
 70
     1
102
RTVSPropertyOp18
 70
     1
102
RTVSPropertyOp19
 70
     1
102
RTVSPropertyOp20
 70
     1
102
RTVSPropertyOp21
 70
     1
102
RTVSPropertyOp22
 70
     1
102
RTVSPropertyOp23
 70
     1
102
RTVSPropertyOp24
 70
     1
102
RTVSPropertyOp25
 70
     1
102
RTVSPropertyOp26
 70
     1
102
RTVSPropertyOp27
 70
     1
102
RTVSPropertyOp28
 70
     1
102
RTVSPropertyOp29
 70
     1
102
RTVSPropertyOp30
 70
     1
102
RTVSPropertyOp31
 70
     1
102
RTVSPropertyOp32
 70
     1
102
RTVSPropertyOp33
 70
     1
102
RTVSPropertyOp34
 70
     1
102
RTVSPropertyOp35
 70
     1
102
RTVSPropertyOp36
 70
     1
102
RTVSPropertyOp37
 70
     1
102
RTVSPropertyOp38
 70
     1
102
RTVSPropertyOp39
 70
     1
102
RTVSPropertyOp40
 70
     1
102
RTVSPropertyOp41
 70
     1
102
RTVSPropertyOp42
 70
     1
102
RTVSPropertyOp43
 70
     1
102
RTVSPropertyOp44
 70
     1
102
RTVSPropertyOp45
 70
     1
102
RTVSPropertyOp46
 70
     1
102
RTVSPropertyOp47
 70
     1
102
RTVSPropertyOp48
 70
     1
102
RTVSPropertyOp49
 70
     1
102
RTVSPropertyOp50
 70
     1
102
RTVSPropertyOp51
 70
     0
102
RTVSPropertyOp52
 70
     0
102
RTVSPropertyOp53
 70
     1
102
RTVSPropertyOp54
 70
     1
102
RTVSPropertyOp55
 70
     1
102
RTVSPropertyOp56
 70
     1
102
RTVSPropertyOp57
 70
     1
102
RTVSPropertyOp58
 70
     1
102
RTVSPropertyOp59
 70
     1
102
RTVSPropertyOp60
 70
     1
102
RTVSPropertyOp61
 70
     1
102
RTVSPropertyOp62
 70
     1
  0
XRECORD
  5
1EC0
102
{ACAD_REACTORS
330
1EBF
102
}
330
1EBF
100
AcDbXrecord
280
     1
102
RTVSPost2010Prop28
280
     0
102
RTVSPost2010PropOp28
 70
     1
102
RTVSPost2010Prop29
280
     1
102
RTVSPost2010PropOp29
 70
     1
102
RTVSPost2010Prop30
280
     1
102
RTVSPost2010PropOp30
 70
     1
102
RTVSPost2010Prop31
280
     0
102
RTVSPost2010PropOp31
 70
     1
102
RTVSPost2010Prop32
280
     0
102
RTVSPost2010PropOp32
 70
     1
102
RTVSPost2010Prop33
280
     0
102
RTVSPost2010PropOp33
 70
     1
102
RTVSPost2010Prop34
280
     0
102
RTVSPost2010PropOp34
 70
     1
102
RTVSPost2010Prop35
280
     0
102
RTVSPost2010PropOp35
 70
     1
102
RTVSPost2010Prop36
280
     0
102
RTVSPost2010PropOp36
 70
     1
102
RTVSPost2010Prop37
 90
       50
102
RTVSPost2010PropOp37
 70
     1
102
RTVSPost2010Prop38
140
0.0
102
RTVSPost2010PropOp38
 70
     1
102
RTVSPost2010Prop39
140
1.0
102
RTVSPost2010PropOp39
 70
     1
102
RTVSPost2010Prop40
 90
        0
102
RTVSPost2010PropOp40
 70
     1
102
RTVSPost2010Prop41ColorIndex
 90
       18
102
RTVSPost2010Prop41ColorRGB
 90
        0
102
RTVSPost2010PropOp41
 70
     1
102
RTVSPost2010Prop42
 90
       50
102
RTVSPost2010PropOp42
 70
     1
102
RTVSPost2010Prop43
 90
        3
102
RTVSPost2010PropOp43
 70
     1
102
RTVSPost2010Prop44ColorIndex
 90
        5
102
RTVSPost2010Prop44ColorRGB
 90
      255
102
RTVSPost2010PropOp44
 70
     1
102
RTVSPost2010Prop45
280
     0
102
RTVSPost2010PropOp45
 70
     1
102
RTVSPost2010Prop46
 90
       50
102
RTVSPost2010PropOp46
 70
     1
102
RTVSPost2010Prop47
 90
       50
102
RTVSPost2010PropOp47
 70
     1
102
RTVSPost2010Prop48
 90
       50
102
RTVSPost2010PropOp48
 70
     1
102
RTVSPost2010Prop49
280
     0
102
RTVSPost2010PropOp49
 70
     1
102
RTVSPost2010Prop50
 90
       50
102
RTVSPost2010PropOp50
 70
     1
102
RTVSPost2010Prop51ColorIndex
 90
      256
102
RTVSPost2010Prop51ColorRGB
 90
-16777216
102
RTVSPost2010PropOp51
 70
     0
102
RTVSPost2010Prop52
140
1.0
102
RTVSPost2010PropOp52
 70
     0
102
RTVSPost2010Prop53
 90
        2
102
RTVSPost2010PropOp53
 70
     1
102
RTVSPost2010Prop54
  1
strokes_ogs.tif
102
RTVSPost2010PropOp54
 70
     1
102
RTVSPost2010Prop55
280
     0
102
RTVSPost2010PropOp55
 70
     1
102
RTVSPost2010Prop56
140
1.0
102
RTVSPost2010PropOp56
 70
     1
102
RTVSPost2010Prop57
140
1.0
102
RTVSPost2010PropOp57
 70
     1
102
RTVSPropertyOp0
 70
     0
102
RTVSPropertyOp1
 70
     0
102
RTVSPropertyOp2
 70
     0
102
RTVSPropertyOp3
 70
     0
102
RTVSPropertyOp4
 70
     0
102
RTVSPropertyOp5
 70
     0
102
RTVSPropertyOp6
 70
     0
102
RTVSPropertyOp7
 70
     0
102
RTVSPropertyOp8
 70
     0
102
RTVSPropertyOp9
 70
     0
102
RTVSPropertyOp10
 70
     0
102
RTVSPropertyOp11
 70
     0
102
RTVSPropertyOp12
 70
     0
102
RTVSPropertyOp13
 70
     0
102
RTVSPropertyOp14
 70
     2
102
RTVSPropertyOp15
 70
     0
102
RTVSPropertyOp16
 70
     0
102
RTVSPropertyOp17
 70
     0
102
RTVSPropertyOp18
 70
     0
102
RTVSPropertyOp19
 70
     0
102
RTVSPropertyOp20
 70
     0
102
RTVSPropertyOp21
 70
     0
102
RTVSPropertyOp22
 70
     0
102
RTVSPropertyOp23
 70
     0
102
RTVSPropertyOp24
 70
     0
102
RTVSPropertyOp25
 70
     0
102
RTVSPropertyOp26
 70
     0
102
RTVSPropertyOp27
 70
     0
102
RTVSPropertyOp28
 70
     1
102
RTVSPropertyOp29
 70
     1
102
RTVSPropertyOp30
 70
     1
102
RTVSPropertyOp31
 70
     1
102
RTVSPropertyOp32
 70
     1
102
RTVSPropertyOp33
 70
     1
102
RTVSPropertyOp34
 70
     1
102
RTVSPropertyOp35
 70
     1
102
RTVSPropertyOp36
 70
     1
102
RTVSPropertyOp37
 70
     1
102
RTVSPropertyOp38
 70
     1
102
RTVSPropertyOp39
 70
     1
102
RTVSPropertyOp40
 70
     1
102
RTVSPropertyOp41
 70
     1
102
RTVSPropertyOp42
 70
     1
102
RTVSPropertyOp43
 70
     1
102
RTVSPropertyOp44
 70
     1
102
RTVSPropertyOp45
 70
     1
102
RTVSPropertyOp46
 70
     1
102
RTVSPropertyOp47
 70
     1
102
RTVSPropertyOp48
 70
     1
102
RTVSPropertyOp49
 70
     1
102
RTVSPropertyOp50
 70
     1
102
RTVSPropertyOp51
 70
     0
102
RTVSPropertyOp52
 70
     0
102
RTVSPropertyOp53
 70
     1
102
RTVSPropertyOp54
 70
     1
102
RTVSPropertyOp55
 70
     1
102
RTVSPropertyOp56
 70
     1
102
RTVSPropertyOp57
 70
     1
102
RTVSPropertyOp58
 70
     1
102
RTVSPropertyOp59
 70
     1
102
RTVSPropertyOp60
 70
     1
102
RTVSPropertyOp61
 70
     1
102
RTVSPropertyOp62
 70
     1
  0
XRECORD
  5
1EB8
102
{ACAD_REACTORS
330
1EB7
102
}
330
1EB7
100
AcDbXrecord
280
     1
102
RTVSPost2010Prop28
280
     0
102
RTVSPost2010PropOp28
 70
     1
102
RTVSPost2010Prop29
280
     1
102
RTVSPost2010PropOp29
 70
     1
102
RTVSPost2010Prop30
280
     1
102
RTVSPost2010PropOp30
 70
     1
102
RTVSPost2010Prop31
280
     0
102
RTVSPost2010PropOp31
 70
     1
102
RTVSPost2010Prop32
280
     0
102
RTVSPost2010PropOp32
 70
     1
102
RTVSPost2010Prop33
280
     0
102
RTVSPost2010PropOp33
 70
     1
102
RTVSPost2010Prop34
280
     0
102
RTVSPost2010PropOp34
 70
     1
102
RTVSPost2010Prop35
280
     0
102
RTVSPost2010PropOp35
 70
     1
102
RTVSPost2010Prop36
280
     0
102
RTVSPost2010PropOp36
 70
     1
102
RTVSPost2010Prop37
 90
       50
102
RTVSPost2010PropOp37
 70
     1
102
RTVSPost2010Prop38
140
0.0
102
RTVSPost2010PropOp38
 70
     1
102
RTVSPost2010Prop39
140
1.0
102
RTVSPost2010PropOp39
 70
     1
102
RTVSPost2010Prop40
 90
        0
102
RTVSPost2010PropOp40
 70
     1
102
RTVSPost2010Prop41ColorIndex
 90
       18
102
RTVSPost2010Prop41ColorRGB
 90
        0
102
RTVSPost2010PropOp41
 70
     1
102
RTVSPost2010Prop42
 90
       50
102
RTVSPost2010PropOp42
 70
     1
102
RTVSPost2010Prop43
 90
        3
102
RTVSPost2010PropOp43
 70
     1
102
RTVSPost2010Prop44ColorIndex
 90
        5
102
RTVSPost2010Prop44ColorRGB
 90
      255
102
RTVSPost2010PropOp44
 70
     1
102
RTVSPost2010Prop45
280
     0
102
RTVSPost2010PropOp45
 70
     1
102
RTVSPost2010Prop46
 90
       50
102
RTVSPost2010PropOp46
 70
     1
102
RTVSPost2010Prop47
 90
       50
102
RTVSPost2010PropOp47
 70
     1
102
RTVSPost2010Prop48
 90
       50
102
RTVSPost2010PropOp48
 70
     1
102
RTVSPost2010Prop49
280
     0
102
RTVSPost2010PropOp49
 70
     1
102
RTVSPost2010Prop50
 90
       50
102
RTVSPost2010PropOp50
 70
     1
102
RTVSPost2010Prop51ColorIndex
 90
      256
102
RTVSPost2010Prop51ColorRGB
 90
-16777216
102
RTVSPost2010PropOp51
 70
     0
102
RTVSPost2010Prop52
140
1.0
102
RTVSPost2010PropOp52
 70
     0
102
RTVSPost2010Prop53
 90
        2
102
RTVSPost2010PropOp53
 70
     1
102
RTVSPost2010Prop54
  1
strokes_ogs.tif
102
RTVSPost2010PropOp54
 70
     1
102
RTVSPost2010Prop55
280
     0
102
RTVSPost2010PropOp55
 70
     1
102
RTVSPost2010Prop56
140
1.0
102
RTVSPost2010PropOp56
 70
     1
102
RTVSPost2010Prop57
140
1.0
102
RTVSPost2010PropOp57
 70
     1
102
RTVSPropertyOp0
 70
     1
102
RTVSPropertyOp1
 70
     1
102
RTVSPropertyOp2
 70
     1
102
RTVSPropertyOp3
 70
     1
102
RTVSPropertyOp4
 70
     1
102
RTVSPropertyOp5
 70
     1
102
RTVSPropertyOp6
 70
     1
102
RTVSPropertyOp7
 70
     1
102
RTVSPropertyOp8
 70
     1
102
RTVSPropertyOp9
 70
     1
102
RTVSPropertyOp10
 70
     1
102
RTVSPropertyOp11
 70
     1
102
RTVSPropertyOp12
 70
     1
102
RTVSPropertyOp13
 70
     1
102
RTVSPropertyOp14
 70
     1
102
RTVSPropertyOp15
 70
     1
102
RTVSPropertyOp16
 70
     1
102
RTVSPropertyOp17
 70
     1
102
RTVSPropertyOp18
 70
     1
102
RTVSPropertyOp19
 70
     1
102
RTVSPropertyOp20
 70
     1
102
RTVSPropertyOp21
 70
     1
102
RTVSPropertyOp22
 70
     1
102
RTVSPropertyOp23
 70
     1
102
RTVSPropertyOp24
 70
     1
102
RTVSPropertyOp25
 70
     1
102
RTVSPropertyOp26
 70
     1
102
RTVSPropertyOp27
 70
     1
102
RTVSPropertyOp28
 70
     1
102
RTVSPropertyOp29
 70
     1
102
RTVSPropertyOp30
 70
     1
102
RTVSPropertyOp31
 70
     1
102
RTVSPropertyOp32
 70
     1
102
RTVSPropertyOp33
 70
     1
102
RTVSPropertyOp34
 70
     1
102
RTVSPropertyOp35
 70
     1
102
RTVSPropertyOp36
 70
     1
102
RTVSPropertyOp37
 70
     1
102
RTVSPropertyOp38
 70
     1
102
RTVSPropertyOp39
 70
     1
102
RTVSPropertyOp40
 70
     1
102
RTVSPropertyOp41
 70
     1
102
RTVSPropertyOp42
 70
     1
102
RTVSPropertyOp43
 70
     1
102
RTVSPropertyOp44
 70
     1
102
RTVSPropertyOp45
 70
     1
102
RTVSPropertyOp46
 70
     1
102
RTVSPropertyOp47
 70
     1
102
RTVSPropertyOp48
 70
     1
102
RTVSPropertyOp49
 70
     1
102
RTVSPropertyOp50
 70
     1
102
RTVSPropertyOp51
 70
     0
102
RTVSPropertyOp52
 70
     0
102
RTVSPropertyOp53
 70
     1
102
RTVSPropertyOp54
 70
     1
102
RTVSPropertyOp55
 70
     1
102
RTVSPropertyOp56
 70
     1
102
RTVSPropertyOp57
 70
     1
102
RTVSPropertyOp58
 70
     1
102
RTVSPropertyOp59
 70
     1
102
RTVSPropertyOp60
 70
     1
102
RTVSPropertyOp61
 70
     1
102
RTVSPropertyOp62
 70
     1
  0
XRECORD
  5
1EC2
102
{ACAD_REACTORS
330
1EC1
102
}
330
1EC1
100
AcDbXrecord
280
     1
102
RTVSPost2010Prop28
280
     0
102
RTVSPost2010PropOp28
 70
     1
102
RTVSPost2010Prop29
280
     1
102
RTVSPost2010PropOp29
 70
     1
102
RTVSPost2010Prop30
280
     1
102
RTVSPost2010PropOp30
 70
     1
102
RTVSPost2010Prop31
280
     0
102
RTVSPost2010PropOp31
 70
     1
102
RTVSPost2010Prop32
280
     0
102
RTVSPost2010PropOp32
 70
     1
102
RTVSPost2010Prop33
280
     0
102
RTVSPost2010PropOp33
 70
     1
102
RTVSPost2010Prop34
280
     0
102
RTVSPost2010PropOp34
 70
     1
102
RTVSPost2010Prop35
280
     0
102
RTVSPost2010PropOp35
 70
     1
102
RTVSPost2010Prop36
280
     0
102
RTVSPost2010PropOp36
 70
     1
102
RTVSPost2010Prop37
 90
       50
102
RTVSPost2010PropOp37
 70
     1
102
RTVSPost2010Prop38
140
0.0
102
RTVSPost2010PropOp38
 70
     1
102
RTVSPost2010Prop39
140
1.0
102
RTVSPost2010PropOp39
 70
     1
102
RTVSPost2010Prop40
 90
        0
102
RTVSPost2010PropOp40
 70
     1
102
RTVSPost2010Prop41ColorIndex
 90
       18
102
RTVSPost2010Prop41ColorRGB
 90
        0
102
RTVSPost2010PropOp41
 70
     1
102
RTVSPost2010Prop42
 90
       50
102
RTVSPost2010PropOp42
 70
     1
102
RTVSPost2010Prop43
 90
        3
102
RTVSPost2010PropOp43
 70
     1
102
RTVSPost2010Prop44ColorIndex
 90
        5
102
RTVSPost2010Prop44ColorRGB
 90
      255
102
RTVSPost2010PropOp44
 70
     1
102
RTVSPost2010Prop45
280
     0
102
RTVSPost2010PropOp45
 70
     1
102
RTVSPost2010Prop46
 90
       50
102
RTVSPost2010PropOp46
 70
     1
102
RTVSPost2010Prop47
 90
       50
102
RTVSPost2010PropOp47
 70
     1
102
RTVSPost2010Prop48
 90
       50
102
RTVSPost2010PropOp48
 70
     1
102
RTVSPost2010Prop49
280
     0
102
RTVSPost2010PropOp49
 70
     1
102
RTVSPost2010Prop50
 90
       50
102
RTVSPost2010PropOp50
 70
     1
102
RTVSPost2010Prop51ColorIndex
 90
      256
102
RTVSPost2010Prop51ColorRGB
 90
-16777216
102
RTVSPost2010PropOp51
 70
     0
102
RTVSPost2010Prop52
140
1.0
102
RTVSPost2010PropOp52
 70
     0
102
RTVSPost2010Prop53
 90
        2
102
RTVSPost2010PropOp53
 70
     1
102
RTVSPost2010Prop54
  1
strokes_ogs.tif
102
RTVSPost2010PropOp54
 70
     1
102
RTVSPost2010Prop55
280
     0
102
RTVSPost2010PropOp55
 70
     1
102
RTVSPost2010Prop56
140
1.0
102
RTVSPost2010PropOp56
 70
     1
102
RTVSPost2010Prop57
140
1.0
102
RTVSPost2010PropOp57
 70
     1
102
RTVSPropertyOp0
 70
     0
102
RTVSPropertyOp1
 70
     0
102
RTVSPropertyOp2
 70
     0
102
RTVSPropertyOp3
 70
     0
102
RTVSPropertyOp4
 70
     0
102
RTVSPropertyOp5
 70
     0
102
RTVSPropertyOp6
 70
     0
102
RTVSPropertyOp7
 70
     0
102
RTVSPropertyOp8
 70
     0
102
RTVSPropertyOp9
 70
     0
102
RTVSPropertyOp10
 70
     0
102
RTVSPropertyOp11
 70
     0
102
RTVSPropertyOp12
 70
     0
102
RTVSPropertyOp13
 70
     0
102
RTVSPropertyOp14
 70
     2
102
RTVSPropertyOp15
 70
     0
102
RTVSPropertyOp16
 70
     0
102
RTVSPropertyOp17
 70
     0
102
RTVSPropertyOp18
 70
     0
102
RTVSPropertyOp19
 70
     0
102
RTVSPropertyOp20
 70
     0
102
RTVSPropertyOp21
 70
     0
102
RTVSPropertyOp22
 70
     0
102
RTVSPropertyOp23
 70
     0
102
RTVSPropertyOp24
 70
     0
102
RTVSPropertyOp25
 70
     0
102
RTVSPropertyOp26
 70
     0
102
RTVSPropertyOp27
 70
     0
102
RTVSPropertyOp28
 70
     1
102
RTVSPropertyOp29
 70
     1
102
RTVSPropertyOp30
 70
     1
102
RTVSPropertyOp31
 70
     1
102
RTVSPropertyOp32
 70
     1
102
RTVSPropertyOp33
 70
     1
102
RTVSPropertyOp34
 70
     1
102
RTVSPropertyOp35
 70
     1
102
RTVSPropertyOp36
 70
     1
102
RTVSPropertyOp37
 70
     1
102
RTVSPropertyOp38
 70
     1
102
RTVSPropertyOp39
 70
     1
102
RTVSPropertyOp40
 70
     1
102
RTVSPropertyOp41
 70
     1
102
RTVSPropertyOp42
 70
     1
102
RTVSPropertyOp43
 70
     1
102
RTVSPropertyOp44
 70
     1
102
RTVSPropertyOp45
 70
     1
102
RTVSPropertyOp46
 70
     1
102
RTVSPropertyOp47
 70
     1
102
RTVSPropertyOp48
 70
     1
102
RTVSPropertyOp49
 70
     1
102
RTVSPropertyOp50
 70
     1
102
RTVSPropertyOp51
 70
     0
102
RTVSPropertyOp52
 70
     0
102
RTVSPropertyOp53
 70
     1
102
RTVSPropertyOp54
 70
     1
102
RTVSPropertyOp55
 70
     1
102
RTVSPropertyOp56
 70
     1
102
RTVSPropertyOp57
 70
     1
102
RTVSPropertyOp58
 70
     1
102
RTVSPropertyOp59
 70
     1
102
RTVSPropertyOp60
 70
     1
102
RTVSPropertyOp61
 70
     1
102
RTVSPropertyOp62
 70
     1
  0
XRECORD
  5
1EB0
102
{ACAD_REACTORS
330
1EAF
102
}
330
1EAF
100
AcDbXrecord
280
     1
102
RTVSPost2010Prop28
280
     0
102
RTVSPost2010PropOp28
 70
     1
102
RTVSPost2010Prop29
280
     1
102
RTVSPost2010PropOp29
 70
     1
102
RTVSPost2010Prop30
280
     1
102
RTVSPost2010PropOp30
 70
     1
102
RTVSPost2010Prop31
280
     0
102
RTVSPost2010PropOp31
 70
     1
102
RTVSPost2010Prop32
280
     0
102
RTVSPost2010PropOp32
 70
     1
102
RTVSPost2010Prop33
280
     0
102
RTVSPost2010PropOp33
 70
     1
102
RTVSPost2010Prop34
280
     0
102
RTVSPost2010PropOp34
 70
     1
102
RTVSPost2010Prop35
280
     0
102
RTVSPost2010PropOp35
 70
     1
102
RTVSPost2010Prop36
280
     0
102
RTVSPost2010PropOp36
 70
     1
102
RTVSPost2010Prop37
 90
       50
102
RTVSPost2010PropOp37
 70
     1
102
RTVSPost2010Prop38
140
0.0
102
RTVSPost2010PropOp38
 70
     1
102
RTVSPost2010Prop39
140
1.0
102
RTVSPost2010PropOp39
 70
     1
102
RTVSPost2010Prop40
 90
        0
102
RTVSPost2010PropOp40
 70
     1
102
RTVSPost2010Prop41ColorIndex
 90
       18
102
RTVSPost2010Prop41ColorRGB
 90
        0
102
RTVSPost2010PropOp41
 70
     1
102
RTVSPost2010Prop42
 90
       50
102
RTVSPost2010PropOp42
 70
     1
102
RTVSPost2010Prop43
 90
        3
102
RTVSPost2010PropOp43
 70
     1
102
RTVSPost2010Prop44ColorIndex
 90
        5
102
RTVSPost2010Prop44ColorRGB
 90
      255
102
RTVSPost2010PropOp44
 70
     1
102
RTVSPost2010Prop45
280
     0
102
RTVSPost2010PropOp45
 70
     1
102
RTVSPost2010Prop46
 90
       50
102
RTVSPost2010PropOp46
 70
     1
102
RTVSPost2010Prop47
 90
       50
102
RTVSPost2010PropOp47
 70
     1
102
RTVSPost2010Prop48
 90
       50
102
RTVSPost2010PropOp48
 70
     1
102
RTVSPost2010Prop49
280
     0
102
RTVSPost2010PropOp49
 70
     1
102
RTVSPost2010Prop50
 90
       50
102
RTVSPost2010PropOp50
 70
     1
102
RTVSPost2010Prop51ColorIndex
 90
      256
102
RTVSPost2010Prop51ColorRGB
 90
-16777216
102
RTVSPost2010PropOp51
 70
     0
102
RTVSPost2010Prop52
140
1.0
102
RTVSPost2010PropOp52
 70
     0
102
RTVSPost2010Prop53
 90
        2
102
RTVSPost2010PropOp53
 70
     1
102
RTVSPost2010Prop54
  1
strokes_ogs.tif
102
RTVSPost2010PropOp54
 70
     1
102
RTVSPost2010Prop55
280
     0
102
RTVSPost2010PropOp55
 70
     1
102
RTVSPost2010Prop56
140
1.0
102
RTVSPost2010PropOp56
 70
     1
102
RTVSPost2010Prop57
140
1.0
102
RTVSPost2010PropOp57
 70
     1
102
RTVSPropertyOp0
 70
     1
102
RTVSPropertyOp1
 70
     1
102
RTVSPropertyOp2
 70
     1
102
RTVSPropertyOp3
 70
     1
102
RTVSPropertyOp4
 70
     1
102
RTVSPropertyOp5
 70
     1
102
RTVSPropertyOp6
 70
     1
102
RTVSPropertyOp7
 70
     1
102
RTVSPropertyOp8
 70
     1
102
RTVSPropertyOp9
 70
     1
102
RTVSPropertyOp10
 70
     1
102
RTVSPropertyOp11
 70
     1
102
RTVSPropertyOp12
 70
     1
102
RTVSPropertyOp13
 70
     1
102
RTVSPropertyOp14
 70
     1
102
RTVSPropertyOp15
 70
     1
102
RTVSPropertyOp16
 70
     1
102
RTVSPropertyOp17
 70
     1
102
RTVSPropertyOp18
 70
     1
102
RTVSPropertyOp19
 70
     1
102
RTVSPropertyOp20
 70
     1
102
RTVSPropertyOp21
 70
     1
102
RTVSPropertyOp22
 70
     1
102
RTVSPropertyOp23
 70
     1
102
RTVSPropertyOp24
 70
     1
102
RTVSPropertyOp25
 70
     1
102
RTVSPropertyOp26
 70
     1
102
RTVSPropertyOp27
 70
     1
102
RTVSPropertyOp28
 70
     1
102
RTVSPropertyOp29
 70
     1
102
RTVSPropertyOp30
 70
     1
102
RTVSPropertyOp31
 70
     1
102
RTVSPropertyOp32
 70
     1
102
RTVSPropertyOp33
 70
     1
102
RTVSPropertyOp34
 70
     1
102
RTVSPropertyOp35
 70
     1
102
RTVSPropertyOp36
 70
     1
102
RTVSPropertyOp37
 70
     1
102
RTVSPropertyOp38
 70
     1
102
RTVSPropertyOp39
 70
     1
102
RTVSPropertyOp40
 70
     1
102
RTVSPropertyOp41
 70
     1
102
RTVSPropertyOp42
 70
     1
102
RTVSPropertyOp43
 70
     1
102
RTVSPropertyOp44
 70
     1
102
RTVSPropertyOp45
 70
     1
102
RTVSPropertyOp46
 70
     1
102
RTVSPropertyOp47
 70
     1
102
RTVSPropertyOp48
 70
     1
102
RTVSPropertyOp49
 70
     1
102
RTVSPropertyOp50
 70
     1
102
RTVSPropertyOp51
 70
     0
102
RTVSPropertyOp52
 70
     0
102
RTVSPropertyOp53
 70
     1
102
RTVSPropertyOp54
 70
     1
102
RTVSPropertyOp55
 70
     1
102
RTVSPropertyOp56
 70
     1
102
RTVSPropertyOp57
 70
     1
102
RTVSPropertyOp58
 70
     1
102
RTVSPropertyOp59
 70
     1
102
RTVSPropertyOp60
 70
     1
102
RTVSPropertyOp61
 70
     1
102
RTVSPropertyOp62
 70
     1
  0
XRECORD
  5
1ECE
102
{ACAD_REACTORS
330
1ECD
102
}
330
1ECD
100
AcDbXrecord
280
     1
102
RTVSPost2010Prop28
280
     0
102
RTVSPost2010PropOp28
 70
     1
102
RTVSPost2010Prop29
280
     1
102
RTVSPost2010PropOp29
 70
     1
102
RTVSPost2010Prop30
280
     1
102
RTVSPost2010PropOp30
 70
     1
102
RTVSPost2010Prop31
280
     0
102
RTVSPost2010PropOp31
 70
     1
102
RTVSPost2010Prop32
280
     0
102
RTVSPost2010PropOp32
 70
     1
102
RTVSPost2010Prop33
280
     0
102
RTVSPost2010PropOp33
 70
     1
102
RTVSPost2010Prop34
280
     0
102
RTVSPost2010PropOp34
 70
     1
102
RTVSPost2010Prop35
280
     0
102
RTVSPost2010PropOp35
 70
     1
102
RTVSPost2010Prop36
280
     0
102
RTVSPost2010PropOp36
 70
     1
102
RTVSPost2010Prop37
 90
       50
102
RTVSPost2010PropOp37
 70
     1
102
RTVSPost2010Prop38
140
0.0
102
RTVSPost2010PropOp38
 70
     1
102
RTVSPost2010Prop39
140
1.0
102
RTVSPost2010PropOp39
 70
     1
102
RTVSPost2010Prop40
 90
        0
102
RTVSPost2010PropOp40
 70
     1
102
RTVSPost2010Prop41ColorIndex
 90
       18
102
RTVSPost2010Prop41ColorRGB
 90
        0
102
RTVSPost2010PropOp41
 70
     1
102
RTVSPost2010Prop42
 90
       50
102
RTVSPost2010PropOp42
 70
     1
102
RTVSPost2010Prop43
 90
        3
102
RTVSPost2010PropOp43
 70
     1
102
RTVSPost2010Prop44ColorIndex
 90
        5
102
RTVSPost2010Prop44ColorRGB
 90
      255
102
RTVSPost2010PropOp44
 70
     1
102
RTVSPost2010Prop45
280
     0
102
RTVSPost2010PropOp45
 70
     1
102
RTVSPost2010Prop46
 90
       50
102
RTVSPost2010PropOp46
 70
     1
102
RTVSPost2010Prop47
 90
       50
102
RTVSPost2010PropOp47
 70
     1
102
RTVSPost2010Prop48
 90
       50
102
RTVSPost2010PropOp48
 70
     1
102
RTVSPost2010Prop49
280
     0
102
RTVSPost2010PropOp49
 70
     1
102
RTVSPost2010Prop50
 90
       50
102
RTVSPost2010PropOp50
 70
     1
102
RTVSPost2010Prop51ColorIndex
 90
      256
102
RTVSPost2010Prop51ColorRGB
 90
-16777216
102
RTVSPost2010PropOp51
 70
     0
102
RTVSPost2010Prop52
140
1.0
102
RTVSPost2010PropOp52
 70
     0
102
RTVSPost2010Prop53
 90
        2
102
RTVSPost2010PropOp53
 70
     1
102
RTVSPost2010Prop54
  1
strokes_ogs.tif
102
RTVSPost2010PropOp54
 70
     1
102
RTVSPost2010Prop55
280
     0
102
RTVSPost2010PropOp55
 70
     1
102
RTVSPost2010Prop56
140
1.0
102
RTVSPost2010PropOp56
 70
     1
102
RTVSPost2010Prop57
140
1.0
102
RTVSPost2010PropOp57
 70
     1
102
RTVSPropertyOp0
 70
     1
102
RTVSPropertyOp1
 70
     1
102
RTVSPropertyOp2
 70
     1
102
RTVSPropertyOp3
 70
     1
102
RTVSPropertyOp4
 70
     1
102
RTVSPropertyOp5
 70
     1
102
RTVSPropertyOp6
 70
     1
102
RTVSPropertyOp7
 70
     1
102
RTVSPropertyOp8
 70
     1
102
RTVSPropertyOp9
 70
     1
102
RTVSPropertyOp10
 70
     1
102
RTVSPropertyOp11
 70
     1
102
RTVSPropertyOp12
 70
     1
102
RTVSPropertyOp13
 70
     1
102
RTVSPropertyOp14
 70
     1
102
RTVSPropertyOp15
 70
     1
102
RTVSPropertyOp16
 70
     1
102
RTVSPropertyOp17
 70
     1
102
RTVSPropertyOp18
 70
     1
102
RTVSPropertyOp19
 70
     1
102
RTVSPropertyOp20
 70
     1
102
RTVSPropertyOp21
 70
     1
102
RTVSPropertyOp22
 70
     1
102
RTVSPropertyOp23
 70
     1
102
RTVSPropertyOp24
 70
     1
102
RTVSPropertyOp25
 70
     1
102
RTVSPropertyOp26
 70
     1
102
RTVSPropertyOp27
 70
     1
102
RTVSPropertyOp28
 70
     1
102
RTVSPropertyOp29
 70
     1
102
RTVSPropertyOp30
 70
     1
102
RTVSPropertyOp31
 70
     1
102
RTVSPropertyOp32
 70
     1
102
RTVSPropertyOp33
 70
     1
102
RTVSPropertyOp34
 70
     1
102
RTVSPropertyOp35
 70
     1
102
RTVSPropertyOp36
 70
     1
102
RTVSPropertyOp37
 70
     1
102
RTVSPropertyOp38
 70
     1
102
RTVSPropertyOp39
 70
     1
102
RTVSPropertyOp40
 70
     1
102
RTVSPropertyOp41
 70
     1
102
RTVSPropertyOp42
 70
     1
102
RTVSPropertyOp43
 70
     1
102
RTVSPropertyOp44
 70
     1
102
RTVSPropertyOp45
 70
     1
102
RTVSPropertyOp46
 70
     1
102
RTVSPropertyOp47
 70
     1
102
RTVSPropertyOp48
 70
     1
102
RTVSPropertyOp49
 70
     1
102
RTVSPropertyOp50
 70
     1
102
RTVSPropertyOp51
 70
     0
102
RTVSPropertyOp52
 70
     0
102
RTVSPropertyOp53
 70
     1
102
RTVSPropertyOp54
 70
     1
102
RTVSPropertyOp55
 70
     1
102
RTVSPropertyOp56
 70
     1
102
RTVSPropertyOp57
 70
     1
102
RTVSPropertyOp58
 70
     1
102
RTVSPropertyOp59
 70
     1
102
RTVSPropertyOp60
 70
     1
102
RTVSPropertyOp61
 70
     1
102
RTVSPropertyOp62
 70
     1
  0
XRECORD
  5
1ECC
102
{ACAD_REACTORS
330
1ECB
102
}
330
1ECB
100
AcDbXrecord
280
     1
102
RTVSPost2010Prop28
280
     0
102
RTVSPost2010PropOp28
 70
     1
102
RTVSPost2010Prop29
280
     1
102
RTVSPost2010PropOp29
 70
     1
102
RTVSPost2010Prop30
280
     1
102
RTVSPost2010PropOp30
 70
     1
102
RTVSPost2010Prop31
280
     0
102
RTVSPost2010PropOp31
 70
     1
102
RTVSPost2010Prop32
280
     0
102
RTVSPost2010PropOp32
 70
     1
102
RTVSPost2010Prop33
280
     0
102
RTVSPost2010PropOp33
 70
     1
102
RTVSPost2010Prop34
280
     0
102
RTVSPost2010PropOp34
 70
     1
102
RTVSPost2010Prop35
280
     0
102
RTVSPost2010PropOp35
 70
     1
102
RTVSPost2010Prop36
280
     0
102
RTVSPost2010PropOp36
 70
     1
102
RTVSPost2010Prop37
 90
       50
102
RTVSPost2010PropOp37
 70
     1
102
RTVSPost2010Prop38
140
0.0
102
RTVSPost2010PropOp38
 70
     1
102
RTVSPost2010Prop39
140
1.0
102
RTVSPost2010PropOp39
 70
     1
102
RTVSPost2010Prop40
 90
        0
102
RTVSPost2010PropOp40
 70
     1
102
RTVSPost2010Prop41ColorIndex
 90
       18
102
RTVSPost2010Prop41ColorRGB
 90
        0
102
RTVSPost2010PropOp41
 70
     1
102
RTVSPost2010Prop42
 90
       50
102
RTVSPost2010PropOp42
 70
     1
102
RTVSPost2010Prop43
 90
        3
102
RTVSPost2010PropOp43
 70
     1
102
RTVSPost2010Prop44ColorIndex
 90
        5
102
RTVSPost2010Prop44ColorRGB
 90
      255
102
RTVSPost2010PropOp44
 70
     1
102
RTVSPost2010Prop45
280
     0
102
RTVSPost2010PropOp45
 70
     1
102
RTVSPost2010Prop46
 90
       50
102
RTVSPost2010PropOp46
 70
     1
102
RTVSPost2010Prop47
 90
       50
102
RTVSPost2010PropOp47
 70
     1
102
RTVSPost2010Prop48
 90
       50
102
RTVSPost2010PropOp48
 70
     1
102
RTVSPost2010Prop49
280
     0
102
RTVSPost2010PropOp49
 70
     1
102
RTVSPost2010Prop50
 90
       50
102
RTVSPost2010PropOp50
 70
     1
102
RTVSPost2010Prop51ColorIndex
 90
      256
102
RTVSPost2010Prop51ColorRGB
 90
-16777216
102
RTVSPost2010PropOp51
 70
     0
102
RTVSPost2010Prop52
140
1.0
102
RTVSPost2010PropOp52
 70
     0
102
RTVSPost2010Prop53
 90
        2
102
RTVSPost2010PropOp53
 70
     1
102
RTVSPost2010Prop54
  1
strokes_ogs.tif
102
RTVSPost2010PropOp54
 70
     1
102
RTVSPost2010Prop55
280
     0
102
RTVSPost2010PropOp55
 70
     1
102
RTVSPost2010Prop56
140
1.0
102
RTVSPost2010PropOp56
 70
     1
102
RTVSPost2010Prop57
140
1.0
102
RTVSPost2010PropOp57
 70
     1
102
RTVSPropertyOp0
 70
     1
102
RTVSPropertyOp1
 70
     1
102
RTVSPropertyOp2
 70
     1
102
RTVSPropertyOp3
 70
     1
102
RTVSPropertyOp4
 70
     1
102
RTVSPropertyOp5
 70
     1
102
RTVSPropertyOp6
 70
     1
102
RTVSPropertyOp7
 70
     1
102
RTVSPropertyOp8
 70
     1
102
RTVSPropertyOp9
 70
     1
102
RTVSPropertyOp10
 70
     1
102
RTVSPropertyOp11
 70
     1
102
RTVSPropertyOp12
 70
     1
102
RTVSPropertyOp13
 70
     1
102
RTVSPropertyOp14
 70
     1
102
RTVSPropertyOp15
 70
     1
102
RTVSPropertyOp16
 70
     1
102
RTVSPropertyOp17
 70
     1
102
RTVSPropertyOp18
 70
     1
102
RTVSPropertyOp19
 70
     1
102
RTVSPropertyOp20
 70
     1
102
RTVSPropertyOp21
 70
     1
102
RTVSPropertyOp22
 70
     1
102
RTVSPropertyOp23
 70
     1
102
RTVSPropertyOp24
 70
     1
102
RTVSPropertyOp25
 70
     1
102
RTVSPropertyOp26
 70
     1
102
RTVSPropertyOp27
 70
     1
102
RTVSPropertyOp28
 70
     1
102
RTVSPropertyOp29
 70
     1
102
RTVSPropertyOp30
 70
     1
102
RTVSPropertyOp31
 70
     1
102
RTVSPropertyOp32
 70
     1
102
RTVSPropertyOp33
 70
     1
102
RTVSPropertyOp34
 70
     1
102
RTVSPropertyOp35
 70
     1
102
RTVSPropertyOp36
 70
     1
102
RTVSPropertyOp37
 70
     1
102
RTVSPropertyOp38
 70
     1
102
RTVSPropertyOp39
 70
     1
102
RTVSPropertyOp40
 70
     1
102
RTVSPropertyOp41
 70
     1
102
RTVSPropertyOp42
 70
     1
102
RTVSPropertyOp43
 70
     1
102
RTVSPropertyOp44
 70
     1
102
RTVSPropertyOp45
 70
     1
102
RTVSPropertyOp46
 70
     1
102
RTVSPropertyOp47
 70
     1
102
RTVSPropertyOp48
 70
     1
102
RTVSPropertyOp49
 70
     1
102
RTVSPropertyOp50
 70
     1
102
RTVSPropertyOp51
 70
     0
102
RTVSPropertyOp52
 70
     0
102
RTVSPropertyOp53
 70
     1
102
RTVSPropertyOp54
 70
     1
102
RTVSPropertyOp55
 70
     1
102
RTVSPropertyOp56
 70
     1
102
RTVSPropertyOp57
 70
     1
102
RTVSPropertyOp58
 70
     1
102
RTVSPropertyOp59
 70
     1
102
RTVSPropertyOp60
 70
     1
102
RTVSPropertyOp61
 70
     1
102
RTVSPropertyOp62
 70
     1
  0
XRECORD
  5
1EC6
102
{ACAD_REACTORS
330
1EC5
102
}
330
1EC5
100
AcDbXrecord
280
     1
102
RTVSPost2010Prop28
280
     0
102
RTVSPost2010PropOp28
 70
     1
102
RTVSPost2010Prop29
280
     1
102
RTVSPost2010PropOp29
 70
     1
102
RTVSPost2010Prop30
280
     1
102
RTVSPost2010PropOp30
 70
     1
102
RTVSPost2010Prop31
280
     0
102
RTVSPost2010PropOp31
 70
     1
102
RTVSPost2010Prop32
280
     0
102
RTVSPost2010PropOp32
 70
     1
102
RTVSPost2010Prop33
280
     0
102
RTVSPost2010PropOp33
 70
     1
102
RTVSPost2010Prop34
280
     0
102
RTVSPost2010PropOp34
 70
     1
102
RTVSPost2010Prop35
280
     0
102
RTVSPost2010PropOp35
 70
     1
102
RTVSPost2010Prop36
280
     0
102
RTVSPost2010PropOp36
 70
     1
102
RTVSPost2010Prop37
 90
       50
102
RTVSPost2010PropOp37
 70
     1
102
RTVSPost2010Prop38
140
0.0
102
RTVSPost2010PropOp38
 70
     1
102
RTVSPost2010Prop39
140
1.0
102
RTVSPost2010PropOp39
 70
     1
102
RTVSPost2010Prop40
 90
        0
102
RTVSPost2010PropOp40
 70
     1
102
RTVSPost2010Prop41ColorIndex
 90
       18
102
RTVSPost2010Prop41ColorRGB
 90
        0
102
RTVSPost2010PropOp41
 70
     1
102
RTVSPost2010Prop42
 90
       50
102
RTVSPost2010PropOp42
 70
     1
102
RTVSPost2010Prop43
 90
        3
102
RTVSPost2010PropOp43
 70
     1
102
RTVSPost2010Prop44ColorIndex
 90
        5
102
RTVSPost2010Prop44ColorRGB
 90
      255
102
RTVSPost2010PropOp44
 70
     1
102
RTVSPost2010Prop45
280
     0
102
RTVSPost2010PropOp45
 70
     1
102
RTVSPost2010Prop46
 90
       50
102
RTVSPost2010PropOp46
 70
     1
102
RTVSPost2010Prop47
 90
       50
102
RTVSPost2010PropOp47
 70
     1
102
RTVSPost2010Prop48
 90
       50
102
RTVSPost2010PropOp48
 70
     1
102
RTVSPost2010Prop49
280
     0
102
RTVSPost2010PropOp49
 70
     1
102
RTVSPost2010Prop50
 90
       50
102
RTVSPost2010PropOp50
 70
     1
102
RTVSPost2010Prop51ColorIndex
 90
      256
102
RTVSPost2010Prop51ColorRGB
 90
-16777216
102
RTVSPost2010PropOp51
 70
     0
102
RTVSPost2010Prop52
140
1.0
102
RTVSPost2010PropOp52
 70
     0
102
RTVSPost2010Prop53
 90
        2
102
RTVSPost2010PropOp53
 70
     1
102
RTVSPost2010Prop54
  1
strokes_ogs.tif
102
RTVSPost2010PropOp54
 70
     1
102
RTVSPost2010Prop55
280
     0
102
RTVSPost2010PropOp55
 70
     1
102
RTVSPost2010Prop56
140
1.0
102
RTVSPost2010PropOp56
 70
     1
102
RTVSPost2010Prop57
140
1.0
102
RTVSPost2010PropOp57
 70
     1
102
RTVSPropertyOp0
 70
     1
102
RTVSPropertyOp1
 70
     1
102
RTVSPropertyOp2
 70
     1
102
RTVSPropertyOp3
 70
     1
102
RTVSPropertyOp4
 70
     1
102
RTVSPropertyOp5
 70
     1
102
RTVSPropertyOp6
 70
     1
102
RTVSPropertyOp7
 70
     1
102
RTVSPropertyOp8
 70
     1
102
RTVSPropertyOp9
 70
     1
102
RTVSPropertyOp10
 70
     1
102
RTVSPropertyOp11
 70
     1
102
RTVSPropertyOp12
 70
     1
102
RTVSPropertyOp13
 70
     1
102
RTVSPropertyOp14
 70
     1
102
RTVSPropertyOp15
 70
     1
102
RTVSPropertyOp16
 70
     1
102
RTVSPropertyOp17
 70
     1
102
RTVSPropertyOp18
 70
     1
102
RTVSPropertyOp19
 70
     1
102
RTVSPropertyOp20
 70
     1
102
RTVSPropertyOp21
 70
     1
102
RTVSPropertyOp22
 70
     1
102
RTVSPropertyOp23
 70
     1
102
RTVSPropertyOp24
 70
     1
102
RTVSPropertyOp25
 70
     1
102
RTVSPropertyOp26
 70
     1
102
RTVSPropertyOp27
 70
     1
102
RTVSPropertyOp28
 70
     1
102
RTVSPropertyOp29
 70
     1
102
RTVSPropertyOp30
 70
     1
102
RTVSPropertyOp31
 70
     1
102
RTVSPropertyOp32
 70
     1
102
RTVSPropertyOp33
 70
     1
102
RTVSPropertyOp34
 70
     1
102
RTVSPropertyOp35
 70
     1
102
RTVSPropertyOp36
 70
     1
102
RTVSPropertyOp37
 70
     1
102
RTVSPropertyOp38
 70
     1
102
RTVSPropertyOp39
 70
     1
102
RTVSPropertyOp40
 70
     1
102
RTVSPropertyOp41
 70
     1
102
RTVSPropertyOp42
 70
     1
102
RTVSPropertyOp43
 70
     1
102
RTVSPropertyOp44
 70
     1
102
RTVSPropertyOp45
 70
     1
102
RTVSPropertyOp46
 70
     1
102
RTVSPropertyOp47
 70
     1
102
RTVSPropertyOp48
 70
     1
102
RTVSPropertyOp49
 70
     1
102
RTVSPropertyOp50
 70
     1
102
RTVSPropertyOp51
 70
     0
102
RTVSPropertyOp52
 70
     0
102
RTVSPropertyOp53
 70
     1
102
RTVSPropertyOp54
 70
     1
102
RTVSPropertyOp55
 70
     1
102
RTVSPropertyOp56
 70
     1
102
RTVSPropertyOp57
 70
     1
102
RTVSPropertyOp58
 70
     1
102
RTVSPropertyOp59
 70
     1
102
RTVSPropertyOp60
 70
     1
102
RTVSPropertyOp61
 70
     1
102
RTVSPropertyOp62
 70
     1
  0
XRECORD
  5
1EC8
102
{ACAD_REACTORS
330
1EC7
102
}
330
1EC7
100
AcDbXrecord
280
     1
102
RTVSPost2010Prop28
280
     0
102
RTVSPost2010PropOp28
 70
     1
102
RTVSPost2010Prop29
280
     1
102
RTVSPost2010PropOp29
 70
     1
102
RTVSPost2010Prop30
280
     1
102
RTVSPost2010PropOp30
 70
     1
102
RTVSPost2010Prop31
280
     0
102
RTVSPost2010PropOp31
 70
     1
102
RTVSPost2010Prop32
280
     0
102
RTVSPost2010PropOp32
 70
     1
102
RTVSPost2010Prop33
280
     0
102
RTVSPost2010PropOp33
 70
     1
102
RTVSPost2010Prop34
280
     0
102
RTVSPost2010PropOp34
 70
     1
102
RTVSPost2010Prop35
280
     0
102
RTVSPost2010PropOp35
 70
     1
102
RTVSPost2010Prop36
280
     0
102
RTVSPost2010PropOp36
 70
     1
102
RTVSPost2010Prop37
 90
       50
102
RTVSPost2010PropOp37
 70
     1
102
RTVSPost2010Prop38
140
0.0
102
RTVSPost2010PropOp38
 70
     1
102
RTVSPost2010Prop39
140
1.0
102
RTVSPost2010PropOp39
 70
     1
102
RTVSPost2010Prop40
 90
        0
102
RTVSPost2010PropOp40
 70
     1
102
RTVSPost2010Prop41ColorIndex
 90
       18
102
RTVSPost2010Prop41ColorRGB
 90
        0
102
RTVSPost2010PropOp41
 70
     1
102
RTVSPost2010Prop42
 90
       50
102
RTVSPost2010PropOp42
 70
     1
102
RTVSPost2010Prop43
 90
        3
102
RTVSPost2010PropOp43
 70
     1
102
RTVSPost2010Prop44ColorIndex
 90
        5
102
RTVSPost2010Prop44ColorRGB
 90
      255
102
RTVSPost2010PropOp44
 70
     1
102
RTVSPost2010Prop45
280
     0
102
RTVSPost2010PropOp45
 70
     1
102
RTVSPost2010Prop46
 90
       50
102
RTVSPost2010PropOp46
 70
     1
102
RTVSPost2010Prop47
 90
       50
102
RTVSPost2010PropOp47
 70
     1
102
RTVSPost2010Prop48
 90
       50
102
RTVSPost2010PropOp48
 70
     1
102
RTVSPost2010Prop49
280
     0
102
RTVSPost2010PropOp49
 70
     1
102
RTVSPost2010Prop50
 90
       50
102
RTVSPost2010PropOp50
 70
     1
102
RTVSPost2010Prop51ColorIndex
 90
      256
102
RTVSPost2010Prop51ColorRGB
 90
-16777216
102
RTVSPost2010PropOp51
 70
     0
102
RTVSPost2010Prop52
140
1.0
102
RTVSPost2010PropOp52
 70
     0
102
RTVSPost2010Prop53
 90
        2
102
RTVSPost2010PropOp53
 70
     1
102
RTVSPost2010Prop54
  1
strokes_ogs.tif
102
RTVSPost2010PropOp54
 70
     1
102
RTVSPost2010Prop55
280
     0
102
RTVSPost2010PropOp55
 70
     1
102
RTVSPost2010Prop56
140
1.0
102
RTVSPost2010PropOp56
 70
     1
102
RTVSPost2010Prop57
140
1.0
102
RTVSPost2010PropOp57
 70
     1
102
RTVSPropertyOp0
 70
     1
102
RTVSPropertyOp1
 70
     1
102
RTVSPropertyOp2
 70
     1
102
RTVSPropertyOp3
 70
     1
102
RTVSPropertyOp4
 70
     1
102
RTVSPropertyOp5
 70
     1
102
RTVSPropertyOp6
 70
     1
102
RTVSPropertyOp7
 70
     1
102
RTVSPropertyOp8
 70
     1
102
RTVSPropertyOp9
 70
     1
102
RTVSPropertyOp10
 70
     1
102
RTVSPropertyOp11
 70
     1
102
RTVSPropertyOp12
 70
     1
102
RTVSPropertyOp13
 70
     1
102
RTVSPropertyOp14
 70
     1
102
RTVSPropertyOp15
 70
     1
102
RTVSPropertyOp16
 70
     1
102
RTVSPropertyOp17
 70
     1
102
RTVSPropertyOp18
 70
     1
102
RTVSPropertyOp19
 70
     1
102
RTVSPropertyOp20
 70
     1
102
RTVSPropertyOp21
 70
     1
102
RTVSPropertyOp22
 70
     1
102
RTVSPropertyOp23
 70
     1
102
RTVSPropertyOp24
 70
     1
102
RTVSPropertyOp25
 70
     1
102
RTVSPropertyOp26
 70
     1
102
RTVSPropertyOp27
 70
     1
102
RTVSPropertyOp28
 70
     1
102
RTVSPropertyOp29
 70
     1
102
RTVSPropertyOp30
 70
     1
102
RTVSPropertyOp31
 70
     1
102
RTVSPropertyOp32
 70
     1
102
RTVSPropertyOp33
 70
     1
102
RTVSPropertyOp34
 70
     1
102
RTVSPropertyOp35
 70
     1
102
RTVSPropertyOp36
 70
     1
102
RTVSPropertyOp37
 70
     1
102
RTVSPropertyOp38
 70
     1
102
RTVSPropertyOp39
 70
     1
102
RTVSPropertyOp40
 70
     1
102
RTVSPropertyOp41
 70
     1
102
RTVSPropertyOp42
 70
     1
102
RTVSPropertyOp43
 70
     1
102
RTVSPropertyOp44
 70
     1
102
RTVSPropertyOp45
 70
     1
102
RTVSPropertyOp46
 70
     1
102
RTVSPropertyOp47
 70
     1
102
RTVSPropertyOp48
 70
     1
102
RTVSPropertyOp49
 70
     1
102
RTVSPropertyOp50
 70
     1
102
RTVSPropertyOp51
 70
     0
102
RTVSPropertyOp52
 70
     0
102
RTVSPropertyOp53
 70
     1
102
RTVSPropertyOp54
 70
     1
102
RTVSPropertyOp55
 70
     1
102
RTVSPropertyOp56
 70
     1
102
RTVSPropertyOp57
 70
     1
102
RTVSPropertyOp58
 70
     1
102
RTVSPropertyOp59
 70
     1
102
RTVSPropertyOp60
 70
     1
102
RTVSPropertyOp61
 70
     1
102
RTVSPropertyOp62
 70
     1
  0
XRECORD
  5
1EB6
102
{ACAD_REACTORS
330
1EB5
102
}
330
1EB5
100
AcDbXrecord
280
     1
102
RTVSPost2010Prop28
280
     0
102
RTVSPost2010PropOp28
 70
     1
102
RTVSPost2010Prop29
280
     1
102
RTVSPost2010PropOp29
 70
     1
102
RTVSPost2010Prop30
280
     1
102
RTVSPost2010PropOp30
 70
     1
102
RTVSPost2010Prop31
280
     0
102
RTVSPost2010PropOp31
 70
     1
102
RTVSPost2010Prop32
280
     0
102
RTVSPost2010PropOp32
 70
     1
102
RTVSPost2010Prop33
280
     0
102
RTVSPost2010PropOp33
 70
     1
102
RTVSPost2010Prop34
280
     0
102
RTVSPost2010PropOp34
 70
     1
102
RTVSPost2010Prop35
280
     0
102
RTVSPost2010PropOp35
 70
     1
102
RTVSPost2010Prop36
280
     0
102
RTVSPost2010PropOp36
 70
     1
102
RTVSPost2010Prop37
 90
       50
102
RTVSPost2010PropOp37
 70
     1
102
RTVSPost2010Prop38
140
0.0
102
RTVSPost2010PropOp38
 70
     1
102
RTVSPost2010Prop39
140
1.0
102
RTVSPost2010PropOp39
 70
     1
102
RTVSPost2010Prop40
 90
        0
102
RTVSPost2010PropOp40
 70
     1
102
RTVSPost2010Prop41ColorIndex
 90
       18
102
RTVSPost2010Prop41ColorRGB
 90
        0
102
RTVSPost2010PropOp41
 70
     1
102
RTVSPost2010Prop42
 90
       50
102
RTVSPost2010PropOp42
 70
     1
102
RTVSPost2010Prop43
 90
        3
102
RTVSPost2010PropOp43
 70
     1
102
RTVSPost2010Prop44ColorIndex
 90
        5
102
RTVSPost2010Prop44ColorRGB
 90
      255
102
RTVSPost2010PropOp44
 70
     1
102
RTVSPost2010Prop45
280
     0
102
RTVSPost2010PropOp45
 70
     1
102
RTVSPost2010Prop46
 90
       50
102
RTVSPost2010PropOp46
 70
     1
102
RTVSPost2010Prop47
 90
       50
102
RTVSPost2010PropOp47
 70
     1
102
RTVSPost2010Prop48
 90
       50
102
RTVSPost2010PropOp48
 70
     1
102
RTVSPost2010Prop49
280
     0
102
RTVSPost2010PropOp49
 70
     1
102
RTVSPost2010Prop50
 90
       50
102
RTVSPost2010PropOp50
 70
     1
102
RTVSPost2010Prop51ColorIndex
 90
      256
102
RTVSPost2010Prop51ColorRGB
 90
-16777216
102
RTVSPost2010PropOp51
 70
     0
102
RTVSPost2010Prop52
140
1.0
102
RTVSPost2010PropOp52
 70
     0
102
RTVSPost2010Prop53
 90
        2
102
RTVSPost2010PropOp53
 70
     1
102
RTVSPost2010Prop54
  1
strokes_ogs.tif
102
RTVSPost2010PropOp54
 70
     1
102
RTVSPost2010Prop55
280
     0
102
RTVSPost2010PropOp55
 70
     1
102
RTVSPost2010Prop56
140
1.0
102
RTVSPost2010PropOp56
 70
     1
102
RTVSPost2010Prop57
140
1.0
102
RTVSPost2010PropOp57
 70
     1
102
RTVSPropertyOp0
 70
     1
102
RTVSPropertyOp1
 70
     1
102
RTVSPropertyOp2
 70
     1
102
RTVSPropertyOp3
 70
     1
102
RTVSPropertyOp4
 70
     1
102
RTVSPropertyOp5
 70
     1
102
RTVSPropertyOp6
 70
     1
102
RTVSPropertyOp7
 70
     1
102
RTVSPropertyOp8
 70
     1
102
RTVSPropertyOp9
 70
     1
102
RTVSPropertyOp10
 70
     1
102
RTVSPropertyOp11
 70
     1
102
RTVSPropertyOp12
 70
     1
102
RTVSPropertyOp13
 70
     1
102
RTVSPropertyOp14
 70
     1
102
RTVSPropertyOp15
 70
     1
102
RTVSPropertyOp16
 70
     1
102
RTVSPropertyOp17
 70
     1
102
RTVSPropertyOp18
 70
     1
102
RTVSPropertyOp19
 70
     1
102
RTVSPropertyOp20
 70
     1
102
RTVSPropertyOp21
 70
     1
102
RTVSPropertyOp22
 70
     1
102
RTVSPropertyOp23
 70
     1
102
RTVSPropertyOp24
 70
     1
102
RTVSPropertyOp25
 70
     1
102
RTVSPropertyOp26
 70
     1
102
RTVSPropertyOp27
 70
     1
102
RTVSPropertyOp28
 70
     1
102
RTVSPropertyOp29
 70
     1
102
RTVSPropertyOp30
 70
     1
102
RTVSPropertyOp31
 70
     1
102
RTVSPropertyOp32
 70
     1
102
RTVSPropertyOp33
 70
     1
102
RTVSPropertyOp34
 70
     1
102
RTVSPropertyOp35
 70
     1
102
RTVSPropertyOp36
 70
     1
102
RTVSPropertyOp37
 70
     1
102
RTVSPropertyOp38
 70
     1
102
RTVSPropertyOp39
 70
     1
102
RTVSPropertyOp40
 70
     1
102
RTVSPropertyOp41
 70
     1
102
RTVSPropertyOp42
 70
     1
102
RTVSPropertyOp43
 70
     1
102
RTVSPropertyOp44
 70
     1
102
RTVSPropertyOp45
 70
     1
102
RTVSPropertyOp46
 70
     1
102
RTVSPropertyOp47
 70
     1
102
RTVSPropertyOp48
 70
     1
102
RTVSPropertyOp49
 70
     1
102
RTVSPropertyOp50
 70
     1
102
RTVSPropertyOp51
 70
     0
102
RTVSPropertyOp52
 70
     0
102
RTVSPropertyOp53
 70
     1
102
RTVSPropertyOp54
 70
     1
102
RTVSPropertyOp55
 70
     1
102
RTVSPropertyOp56
 70
     1
102
RTVSPropertyOp57
 70
     1
102
RTVSPropertyOp58
 70
     1
102
RTVSPropertyOp59
 70
     1
102
RTVSPropertyOp60
 70
     1
102
RTVSPropertyOp61
 70
     1
102
RTVSPropertyOp62
 70
     1
  0
XRECORD
  5
1EAA
102
{ACAD_REACTORS
330
1EA9
102
}
330
1EA9
100
AcDbXrecord
280
     1
102
RTVSPost2010Prop28
280
     0
102
RTVSPost2010PropOp28
 70
     1
102
RTVSPost2010Prop29
280
     1
102
RTVSPost2010PropOp29
 70
     1
102
RTVSPost2010Prop30
280
     1
102
RTVSPost2010PropOp30
 70
     1
102
RTVSPost2010Prop31
280
     0
102
RTVSPost2010PropOp31
 70
     1
102
RTVSPost2010Prop32
280
     0
102
RTVSPost2010PropOp32
 70
     1
102
RTVSPost2010Prop33
280
     0
102
RTVSPost2010PropOp33
 70
     1
102
RTVSPost2010Prop34
280
     0
102
RTVSPost2010PropOp34
 70
     1
102
RTVSPost2010Prop35
280
     0
102
RTVSPost2010PropOp35
 70
     1
102
RTVSPost2010Prop36
280
     0
102
RTVSPost2010PropOp36
 70
     1
102
RTVSPost2010Prop37
 90
       50
102
RTVSPost2010PropOp37
 70
     1
102
RTVSPost2010Prop38
140
0.0
102
RTVSPost2010PropOp38
 70
     1
102
RTVSPost2010Prop39
140
1.0
102
RTVSPost2010PropOp39
 70
     1
102
RTVSPost2010Prop40
 90
        0
102
RTVSPost2010PropOp40
 70
     1
102
RTVSPost2010Prop41ColorIndex
 90
       18
102
RTVSPost2010Prop41ColorRGB
 90
        0
102
RTVSPost2010PropOp41
 70
     1
102
RTVSPost2010Prop42
 90
       50
102
RTVSPost2010PropOp42
 70
     1
102
RTVSPost2010Prop43
 90
        3
102
RTVSPost2010PropOp43
 70
     1
102
RTVSPost2010Prop44ColorIndex
 90
        5
102
RTVSPost2010Prop44ColorRGB
 90
      255
102
RTVSPost2010PropOp44
 70
     1
102
RTVSPost2010Prop45
280
     0
102
RTVSPost2010PropOp45
 70
     1
102
RTVSPost2010Prop46
 90
       50
102
RTVSPost2010PropOp46
 70
     1
102
RTVSPost2010Prop47
 90
       50
102
RTVSPost2010PropOp47
 70
     1
102
RTVSPost2010Prop48
 90
       50
102
RTVSPost2010PropOp48
 70
     1
102
RTVSPost2010Prop49
280
     0
102
RTVSPost2010PropOp49
 70
     1
102
RTVSPost2010Prop50
 90
       50
102
RTVSPost2010PropOp50
 70
     1
102
RTVSPost2010Prop51ColorIndex
 90
      256
102
RTVSPost2010Prop51ColorRGB
 90
-16777216
102
RTVSPost2010PropOp51
 70
     0
102
RTVSPost2010Prop52
140
1.0
102
RTVSPost2010PropOp52
 70
     0
102
RTVSPost2010Prop53
 90
        2
102
RTVSPost2010PropOp53
 70
     1
102
RTVSPost2010Prop54
  1
strokes_ogs.tif
102
RTVSPost2010PropOp54
 70
     1
102
RTVSPost2010Prop55
280
     0
102
RTVSPost2010PropOp55
 70
     1
102
RTVSPost2010Prop56
140
1.0
102
RTVSPost2010PropOp56
 70
     1
102
RTVSPost2010Prop57
140
1.0
102
RTVSPost2010PropOp57
 70
     1
102
RTVSPropertyOp0
 70
     1
102
RTVSPropertyOp1
 70
     1
102
RTVSPropertyOp2
 70
     1
102
RTVSPropertyOp3
 70
     1
102
RTVSPropertyOp4
 70
     1
102
RTVSPropertyOp5
 70
     1
102
RTVSPropertyOp6
 70
     1
102
RTVSPropertyOp7
 70
     1
102
RTVSPropertyOp8
 70
     1
102
RTVSPropertyOp9
 70
     1
102
RTVSPropertyOp10
 70
     1
102
RTVSPropertyOp11
 70
     1
102
RTVSPropertyOp12
 70
     1
102
RTVSPropertyOp13
 70
     1
102
RTVSPropertyOp14
 70
     1
102
RTVSPropertyOp15
 70
     1
102
RTVSPropertyOp16
 70
     1
102
RTVSPropertyOp17
 70
     1
102
RTVSPropertyOp18
 70
     1
102
RTVSPropertyOp19
 70
     1
102
RTVSPropertyOp20
 70
     1
102
RTVSPropertyOp21
 70
     1
102
RTVSPropertyOp22
 70
     1
102
RTVSPropertyOp23
 70
     1
102
RTVSPropertyOp24
 70
     1
102
RTVSPropertyOp25
 70
     1
102
RTVSPropertyOp26
 70
     1
102
RTVSPropertyOp27
 70
     1
102
RTVSPropertyOp28
 70
     1
102
RTVSPropertyOp29
 70
     1
102
RTVSPropertyOp30
 70
     1
102
RTVSPropertyOp31
 70
     1
102
RTVSPropertyOp32
 70
     1
102
RTVSPropertyOp33
 70
     1
102
RTVSPropertyOp34
 70
     1
102
RTVSPropertyOp35
 70
     1
102
RTVSPropertyOp36
 70
     1
102
RTVSPropertyOp37
 70
     1
102
RTVSPropertyOp38
 70
     1
102
RTVSPropertyOp39
 70
     1
102
RTVSPropertyOp40
 70
     1
102
RTVSPropertyOp41
 70
     1
102
RTVSPropertyOp42
 70
     1
102
RTVSPropertyOp43
 70
     1
102
RTVSPropertyOp44
 70
     1
102
RTVSPropertyOp45
 70
     1
102
RTVSPropertyOp46
 70
     1
102
RTVSPropertyOp47
 70
     1
102
RTVSPropertyOp48
 70
     1
102
RTVSPropertyOp49
 70
     1
102
RTVSPropertyOp50
 70
     1
102
RTVSPropertyOp51
 70
     0
102
RTVSPropertyOp52
 70
     0
102
RTVSPropertyOp53
 70
     1
102
RTVSPropertyOp54
 70
     1
102
RTVSPropertyOp55
 70
     1
102
RTVSPropertyOp56
 70
     1
102
RTVSPropertyOp57
 70
     1
102
RTVSPropertyOp58
 70
     1
102
RTVSPropertyOp59
 70
     1
102
RTVSPropertyOp60
 70
     1
102
RTVSPropertyOp61
 70
     1
102
RTVSPropertyOp62
 70
     1
  0
XRECORD
  5
1ECA
102
{ACAD_REACTORS
330
1EC9
102
}
330
1EC9
100
AcDbXrecord
280
     1
102
RTVSPost2010Prop28
280
     0
102
RTVSPost2010PropOp28
 70
     1
102
RTVSPost2010Prop29
280
     1
102
RTVSPost2010PropOp29
 70
     1
102
RTVSPost2010Prop30
280
     1
102
RTVSPost2010PropOp30
 70
     1
102
RTVSPost2010Prop31
280
     0
102
RTVSPost2010PropOp31
 70
     1
102
RTVSPost2010Prop32
280
     0
102
RTVSPost2010PropOp32
 70
     1
102
RTVSPost2010Prop33
280
     0
102
RTVSPost2010PropOp33
 70
     1
102
RTVSPost2010Prop34
280
     0
102
RTVSPost2010PropOp34
 70
     1
102
RTVSPost2010Prop35
280
     0
102
RTVSPost2010PropOp35
 70
     1
102
RTVSPost2010Prop36
280
     0
102
RTVSPost2010PropOp36
 70
     1
102
RTVSPost2010Prop37
 90
       50
102
RTVSPost2010PropOp37
 70
     1
102
RTVSPost2010Prop38
140
0.0
102
RTVSPost2010PropOp38
 70
     1
102
RTVSPost2010Prop39
140
1.0
102
RTVSPost2010PropOp39
 70
     1
102
RTVSPost2010Prop40
 90
        0
102
RTVSPost2010PropOp40
 70
     1
102
RTVSPost2010Prop41ColorIndex
 90
       18
102
RTVSPost2010Prop41ColorRGB
 90
        0
102
RTVSPost2010PropOp41
 70
     1
102
RTVSPost2010Prop42
 90
       50
102
RTVSPost2010PropOp42
 70
     1
102
RTVSPost2010Prop43
 90
        3
102
RTVSPost2010PropOp43
 70
     1
102
RTVSPost2010Prop44ColorIndex
 90
        5
102
RTVSPost2010Prop44ColorRGB
 90
      255
102
RTVSPost2010PropOp44
 70
     1
102
RTVSPost2010Prop45
280
     0
102
RTVSPost2010PropOp45
 70
     1
102
RTVSPost2010Prop46
 90
       50
102
RTVSPost2010PropOp46
 70
     1
102
RTVSPost2010Prop47
 90
       50
102
RTVSPost2010PropOp47
 70
     1
102
RTVSPost2010Prop48
 90
       50
102
RTVSPost2010PropOp48
 70
     1
102
RTVSPost2010Prop49
280
     0
102
RTVSPost2010PropOp49
 70
     1
102
RTVSPost2010Prop50
 90
       50
102
RTVSPost2010PropOp50
 70
     1
102
RTVSPost2010Prop51ColorIndex
 90
      256
102
RTVSPost2010Prop51ColorRGB
 90
-16777216
102
RTVSPost2010PropOp51
 70
     0
102
RTVSPost2010Prop52
140
1.0
102
RTVSPost2010PropOp52
 70
     0
102
RTVSPost2010Prop53
 90
        2
102
RTVSPost2010PropOp53
 70
     1
102
RTVSPost2010Prop54
  1
strokes_ogs.tif
102
RTVSPost2010PropOp54
 70
     1
102
RTVSPost2010Prop55
280
     0
102
RTVSPost2010PropOp55
 70
     1
102
RTVSPost2010Prop56
140
1.0
102
RTVSPost2010PropOp56
 70
     1
102
RTVSPost2010Prop57
140
1.0
102
RTVSPost2010PropOp57
 70
     1
102
RTVSPropertyOp0
 70
     1
102
RTVSPropertyOp1
 70
     1
102
RTVSPropertyOp2
 70
     1
102
RTVSPropertyOp3
 70
     1
102
RTVSPropertyOp4
 70
     1
102
RTVSPropertyOp5
 70
     1
102
RTVSPropertyOp6
 70
     1
102
RTVSPropertyOp7
 70
     1
102
RTVSPropertyOp8
 70
     1
102
RTVSPropertyOp9
 70
     1
102
RTVSPropertyOp10
 70
     1
102
RTVSPropertyOp11
 70
     1
102
RTVSPropertyOp12
 70
     1
102
RTVSPropertyOp13
 70
     1
102
RTVSPropertyOp14
 70
     1
102
RTVSPropertyOp15
 70
     1
102
RTVSPropertyOp16
 70
     1
102
RTVSPropertyOp17
 70
     1
102
RTVSPropertyOp18
 70
     1
102
RTVSPropertyOp19
 70
     1
102
RTVSPropertyOp20
 70
     1
102
RTVSPropertyOp21
 70
     1
102
RTVSPropertyOp22
 70
     1
102
RTVSPropertyOp23
 70
     1
102
RTVSPropertyOp24
 70
     1
102
RTVSPropertyOp25
 70
     1
102
RTVSPropertyOp26
 70
     1
102
RTVSPropertyOp27
 70
     1
102
RTVSPropertyOp28
 70
     1
102
RTVSPropertyOp29
 70
     1
102
RTVSPropertyOp30
 70
     1
102
RTVSPropertyOp31
 70
     1
102
RTVSPropertyOp32
 70
     1
102
RTVSPropertyOp33
 70
     1
102
RTVSPropertyOp34
 70
     1
102
RTVSPropertyOp35
 70
     1
102
RTVSPropertyOp36
 70
     1
102
RTVSPropertyOp37
 70
     1
102
RTVSPropertyOp38
 70
     1
102
RTVSPropertyOp39
 70
     1
102
RTVSPropertyOp40
 70
     1
102
RTVSPropertyOp41
 70
     1
102
RTVSPropertyOp42
 70
     1
102
RTVSPropertyOp43
 70
     1
102
RTVSPropertyOp44
 70
     1
102
RTVSPropertyOp45
 70
     1
102
RTVSPropertyOp46
 70
     1
102
RTVSPropertyOp47
 70
     1
102
RTVSPropertyOp48
 70
     1
102
RTVSPropertyOp49
 70
     1
102
RTVSPropertyOp50
 70
     1
102
RTVSPropertyOp51
 70
     0
102
RTVSPropertyOp52
 70
     0
102
RTVSPropertyOp53
 70
     1
102
RTVSPropertyOp54
 70
     1
102
RTVSPropertyOp55
 70
     1
102
RTVSPropertyOp56
 70
     1
102
RTVSPropertyOp57
 70
     1
102
RTVSPropertyOp58
 70
     1
102
RTVSPropertyOp59
 70
     1
102
RTVSPropertyOp60
 70
     1
102
RTVSPropertyOp61
 70
     1
102
RTVSPropertyOp62
 70
     1
  0
ENDSEC
  0
EOF
